  0
SECTION
  2
HEADER
  9
$ACADVER
  1
AC1015
  9
$ACADMAINTVER
 70
     6
  9
$DWGCODEPAGE
  3
ANSI_1252
  9
$INSBASE
 10
0.0
 20
0.0
 30
0.0
  9
$EXTMIN
 10
-122.3235932684693
 20
-86.09438913415534
 30
0.0
  9
$EXTMAX
 10
144.9807276444735
 20
89.50969946559749
 30
0.0
  9
$LIMMIN
 10
-81.793868366
 20
-54.170439602
  9
$LIMMAX
 10
102.97389072
 20
63.538170921
  9
$ORTHOMODE
 70
     0
  9
$REGENMODE
 70
     1
  9
$FILLMODE
 70
     1
  9
$QTEXTMODE
 70
     0
  9
$MIRRTEXT
 70
     1
  9
$LTSCALE
 40
1.0
  9
$ATTMODE
 70
     1
  9
$TEXTSIZE
 40
0.2
  9
$TRACEWID
 40
0.05
  9
$TEXTSTYLE
  7
Standard
  9
$CLAYER
  8
1
  9
$CELTYPE
  6
ByLayer
  9
$CECOLOR
 62
   256
  9
$CELTSCALE
 40
1.0
  9
$DISPSILH
 70
     0
  9
$DIMSCALE
 40
1.0
  9
$DIMASZ
 40
0.18
  9
$DIMEXO
 40
0.0625
  9
$DIMDLI
 40
0.38
  9
$DIMRND
 40
0.0
  9
$DIMDLE
 40
0.0
  9
$DIMEXE
 40
0.18
  9
$DIMTP
 40
0.0
  9
$DIMTM
 40
0.0
  9
$DIMTXT
 40
0.18
  9
$DIMCEN
 40
0.09
  9
$DIMTSZ
 40
0.0
  9
$DIMTOL
 70
     0
  9
$DIMLIM
 70
     0
  9
$DIMTIH
 70
     1
  9
$DIMTOH
 70
     1
  9
$DIMSE1
 70
     0
  9
$DIMSE2
 70
     0
  9
$DIMTAD
 70
     0
  9
$DIMZIN
 70
     0
  9
$DIMBLK
  1

  9
$DIMASO
 70
     1
  9
$DIMSHO
 70
     1
  9
$DIMPOST
  1

  9
$DIMAPOST
  1

  9
$DIMALT
 70
     0
  9
$DIMALTD
 70
     2
  9
$DIMALTF
 40
25.4
  9
$DIMLFAC
 40
1.0
  9
$DIMTOFL
 70
     0
  9
$DIMTVP
 40
0.0
  9
$DIMTIX
 70
     0
  9
$DIMSOXD
 70
     0
  9
$DIMSAH
 70
     0
  9
$DIMBLK1
  1

  9
$DIMBLK2
  1

  9
$DIMSTYLE
  2
Standard
  9
$DIMCLRD
 70
     0
  9
$DIMCLRE
 70
     0
  9
$DIMCLRT
 70
     0
  9
$DIMTFAC
 40
1.0
  9
$DIMGAP
 40
0.09
  9
$DIMJUST
 70
     0
  9
$DIMSD1
 70
     0
  9
$DIMSD2
 70
     0
  9
$DIMTOLJ
 70
     1
  9
$DIMTZIN
 70
     0
  9
$DIMALTZ
 70
     0
  9
$DIMALTTZ
 70
     0
  9
$DIMUPT
 70
     0
  9
$DIMDEC
 70
     4
  9
$DIMTDEC
 70
     4
  9
$DIMALTU
 70
     2
  9
$DIMALTTD
 70
     2
  9
$DIMTXSTY
  7
Standard
  9
$DIMAUNIT
 70
     0
  9
$DIMADEC
 70
     0
  9
$DIMALTRND
 40
0.0
  9
$DIMAZIN
 70
     0
  9
$DIMDSEP
 70
    46
  9
$DIMATFIT
 70
     3
  9
$DIMFRAC
 70
     0
  9
$DIMLDRBLK
  1

  9
$DIMLUNIT
 70
     2
  9
$DIMLWD
 70
    -2
  9
$DIMLWE
 70
    -2
  9
$DIMTMOVE
 70
     2
  9
$LUNITS
 70
     2
  9
$LUPREC
 70
     4
  9
$SKETCHINC
 40
0.1
  9
$FILLETRAD
 40
0.5
  9
$AUNITS
 70
     2
  9
$AUPREC
 70
     0
  9
$MENU
  1
.
  9
$ELEVATION
 40
0.0
  9
$PELEVATION
 40
0.0
  9
$THICKNESS
 40
0.0
  9
$LIMCHECK
 70
     0
  9
$CHAMFERA
 40
0.5
  9
$CHAMFERB
 40
0.5
  9
$CHAMFERC
 40
1.0
  9
$CHAMFERD
 40
0.0
  9
$SKPOLY
 70
     0
  9
$TDCREATE
 40
2458327.549315058
  9
$TDUCREATE
 40
2458327.465981725
  9
$TDUPDATE
 40
2458589.591490949
  9
$TDUUPDATE
 40
2458589.508157616
  9
$TDINDWG
 40
0.0086986458
  9
$TDUSRTIMER
 40
0.0001010301
  9
$USRTIMER
 70
     1
  9
$ANGBASE
 50
0.0
  9
$ANGDIR
 70
     0
  9
$PDMODE
 70
     0
  9
$PDSIZE
 40
0.0
  9
$PLINEWID
 40
0.0
  9
$SPLFRAME
 70
     0
  9
$SPLINETYPE
 70
     6
  9
$SPLINESEGS
 70
     8
  9
$HANDSEED
  5
49E
  9
$SURFTAB1
 70
     6
  9
$SURFTAB2
 70
     6
  9
$SURFTYPE
 70
     6
  9
$SURFU
 70
     6
  9
$SURFV
 70
     6
  9
$UCSBASE
  2

  9
$UCSNAME
  2

  9
$UCSORG
 10
0.0
 20
0.0
 30
0.0
  9
$UCSXDIR
 10
1.0
 20
0.0
 30
0.0
  9
$UCSYDIR
 10
0.0
 20
1.0
 30
0.0
  9
$UCSORTHOREF
  2

  9
$UCSORTHOVIEW
 70
     0
  9
$UCSORGTOP
 10
0.0
 20
0.0
 30
0.0
  9
$UCSORGBOTTOM
 10
0.0
 20
0.0
 30
0.0
  9
$UCSORGLEFT
 10
0.0
 20
0.0
 30
0.0
  9
$UCSORGRIGHT
 10
0.0
 20
0.0
 30
0.0
  9
$UCSORGFRONT
 10
0.0
 20
0.0
 30
0.0
  9
$UCSORGBACK
 10
0.0
 20
0.0
 30
0.0
  9
$PUCSBASE
  2

  9
$PUCSNAME
  2

  9
$PUCSORG
 10
0.0
 20
0.0
 30
0.0
  9
$PUCSXDIR
 10
1.0
 20
0.0
 30
0.0
  9
$PUCSYDIR
 10
0.0
 20
1.0
 30
0.0
  9
$PUCSORTHOREF
  2

  9
$PUCSORTHOVIEW
 70
     0
  9
$PUCSORGTOP
 10
0.0
 20
0.0
 30
0.0
  9
$PUCSORGBOTTOM
 10
0.0
 20
0.0
 30
0.0
  9
$PUCSORGLEFT
 10
0.0
 20
0.0
 30
0.0
  9
$PUCSORGRIGHT
 10
0.0
 20
0.0
 30
0.0
  9
$PUCSORGFRONT
 10
0.0
 20
0.0
 30
0.0
  9
$PUCSORGBACK
 10
0.0
 20
0.0
 30
0.0
  9
$USERI1
 70
     0
  9
$USERI2
 70
     0
  9
$USERI3
 70
     0
  9
$USERI4
 70
     0
  9
$USERI5
 70
     0
  9
$USERR1
 40
0.0
  9
$USERR2
 40
0.0
  9
$USERR3
 40
0.0
  9
$USERR4
 40
0.0
  9
$USERR5
 40
0.0
  9
$WORLDVIEW
 70
     1
  9
$SHADEDGE
 70
     3
  9
$SHADEDIF
 70
    70
  9
$TILEMODE
 70
     1
  9
$MAXACTVP
 70
    64
  9
$PINSBASE
 10
0.0
 20
0.0
 30
0.0
  9
$PLIMCHECK
 70
     0
  9
$PEXTMIN
 10
1.000000000000000E+20
 20
1.000000000000000E+20
 30
1.000000000000000E+20
  9
$PEXTMAX
 10
-1.000000000000000E+20
 20
-1.000000000000000E+20
 30
-1.000000000000000E+20
  9
$PLIMMIN
 10
0.0
 20
0.0
  9
$PLIMMAX
 10
0.0
 20
0.0
  9
$UNITMODE
 70
     0
  9
$VISRETAIN
 70
     1
  9
$PLINEGEN
 70
     0
  9
$PSLTSCALE
 70
     1
  9
$TREEDEPTH
 70
  3020
  9
$CMLSTYLE
  2
Standard
  9
$CMLJUST
 70
     0
  9
$CMLSCALE
 40
1.0
  9
$PROXYGRAPHICS
 70
     1
  9
$MEASUREMENT
 70
     0
  9
$CELWEIGHT
370
    -1
  9
$ENDCAPS
280
     0
  9
$JOINSTYLE
280
     0
  9
$LWDISPLAY
290
     0
  9
$INSUNITS
 70
     0
  9
$HYPERLINKBASE
  1

  9
$STYLESHEET
  1

  9
$XEDIT
290
     1
  9
$CEPSNTYPE
380
     0
  9
$PSTYLEMODE
290
     1
  9
$FINGERPRINTGUID
  2
{E3C0DB62-ED8D-49C9-B55B-0FF126AF7788}
  9
$VERSIONGUID
  2
{FAEB1C32-E019-11D5-929B-00C0DF256EC4}
  9
$EXTNAMES
290
     1
  9
$PSVPSCALE
 40
0.0
  9
$OLESTARTUP
290
     0
  0
ENDSEC
  0
SECTION
  2
CLASSES
  0
CLASS
  1
ACDBDICTIONARYWDFLT
  2
AcDbDictionaryWithDefault
  3
ObjectDBX Classes
 90
        0
280
     0
281
     0
  0
CLASS
  1
SCALE
  2
AcDbScale
  3
ObjectDBX Classes
 90
     1153
280
     0
281
     0
  0
CLASS
  1
VISUALSTYLE
  2
AcDbVisualStyle
  3
ObjectDBX Classes
 90
     4095
280
     0
281
     0
  0
CLASS
  1
MATERIAL
  2
AcDbMaterial
  3
ObjectDBX Classes
 90
     1153
280
     0
281
     0
  0
CLASS
  1
DICTIONARYVAR
  2
AcDbDictionaryVar
  3
ObjectDBX Classes
 90
        0
280
     0
281
     0
  0
CLASS
  1
ACDBPLACEHOLDER
  2
AcDbPlaceHolder
  3
ObjectDBX Classes
 90
        0
280
     0
281
     0
  0
CLASS
  1
LAYOUT
  2
AcDbLayout
  3
ObjectDBX Classes
 90
        0
280
     0
281
     0
  0
CLASS
  1
TABLESTYLE
  2
AcDbTableStyle
  3
ObjectDBX Classes
 90
     4095
280
     0
281
     0
  0
CLASS
  1
MLEADERSTYLE
  2
AcDbMLeaderStyle
  3
ACDB_MLEADERSTYLE_CLASS
 90
     4095
280
     0
281
     0
  0
CLASS
  1
CELLSTYLEMAP
  2
AcDbCellStyleMap
  3
ObjectDBX Classes
 90
     1152
280
     0
281
     0
  0
CLASS
  1
SUN
  2
AcDbSun
  3
SCENEOE
 90
     1153
280
     0
281
     0
  0
CLASS
  1
SORTENTSTABLE
  2
AcDbSortentsTable
  3
ObjectDBX Classes
 90
        0
280
     0
281
     0
  0
CLASS
  1
CENTERLINE
  2
CFxDbCenterline
  3
CFxDbCenterline|Description: FxCenterline entity
 90
     3071
280
     0
281
     1
  0
ENDSEC
  0
SECTION
  2
TABLES
  0
TABLE
  2
VPORT
  5
8
330
0
100
AcDbSymbolTable
 70
     1
  0
VPORT
  5
10B
330
8
100
AcDbSymbolTableRecord
100
AcDbViewportTableRecord
  2
*Active
 70
     0
 10
0.0
 20
0.0
 11
1.0
 21
1.0
 12
-142.3038590231731
 22
24.51399247998344
 13
0.0
 23
0.0
 14
0.5
 24
0.5
 15
0.5
 25
0.5
 16
0.0
 26
0.0
 36
1.0
 17
0.0
 27
0.0
 37
0.0
 40
837.5013309853728
 41
1.70021645021645
 42
50.0
 43
0.0
 44
0.0
 50
0.0
 51
0.0
 71
    16
 72
   100
 73
     1
 74
     3
 75
     1
 76
     0
 77
     0
 78
     0
281
     0
 65
     1
110
0.0
120
0.0
130
0.0
111
1.0
121
0.0
131
0.0
112
0.0
122
1.0
132
0.0
 79
     0
146
0.0
  0
ENDTAB
  0
TABLE
  2
LTYPE
  5
5
330
0
100
AcDbSymbolTable
 70
     9
  0
LTYPE
  5
14
330
5
100
AcDbSymbolTableRecord
100
AcDbLinetypeTableRecord
  2
ByBlock
 70
     0
  3

 72
    65
 73
     0
 40
0.0
  0
LTYPE
  5
15
330
5
100
AcDbSymbolTableRecord
100
AcDbLinetypeTableRecord
  2
ByLayer
 70
     0
  3

 72
    65
 73
     0
 40
0.0
  0
LTYPE
  5
16
330
5
100
AcDbSymbolTableRecord
100
AcDbLinetypeTableRecord
  2
Continuous
 70
     0
  3
Solid line
 72
    65
 73
     0
 40
0.0
  0
LTYPE
  5
20
330
5
100
AcDbSymbolTableRecord
100
AcDbLinetypeTableRecord
  2
PUNKT
 70
     0
  3
..............
 72
    65
 73
     2
 40
1.5
 49
0.7
 74
     0
 49
-0.8
 74
     0
  0
LTYPE
  5
21
330
5
100
AcDbSymbolTableRecord
100
AcDbLinetypeTableRecord
  2
GESTRICHELT
 70
     0
  3
-- -- -- -- --
 72
    65
 73
     7
 40
2.8
 49
0.9
 74
     0
 49
0.0
 74
     0
 49
0.9
 74
     0
 49
0.0
 74
     0
 49
0.2
 74
     0
 49
0.0
 74
     0
 49
-0.8
 74
     0
  0
LTYPE
  5
22
330
5
100
AcDbSymbolTableRecord
100
AcDbLinetypeTableRecord
  2
STRICHPUNKT
 70
     0
  3
--.--.--.--.--
 72
    65
 73
     4
 40
8.8
 49
5.5
 74
     0
 49
-1.3
 74
     0
 49
0.7
 74
     0
 49
-1.3
 74
     0
  0
LTYPE
  5
25
330
5
100
AcDbSymbolTableRecord
100
AcDbLinetypeTableRecord
  2
PHANTOM
 70
     0
  3
--..--..--..--
 72
    65
 73
     6
 40
14.2
 49
7.0
 74
     0
 49
-1.8
 74
     0
 49
0.9
 74
     0
 49
-1.8
 74
     0
 49
0.9
 74
     0
 49
-1.8
 74
     0
  0
LTYPE
  5
183
330
5
100
AcDbSymbolTableRecord
100
AcDbLinetypeTableRecord
  2
DASH
 70
     0
  3
DASH _ _ _ _ _
 72
    65
 73
     2
 40
0.75
 49
0.4
 74
     0
 49
-0.35
 74
     0
  0
LTYPE
  5
184
330
5
100
AcDbSymbolTableRecord
100
AcDbLinetypeTableRecord
  2
LONGDASH_DASH
 70
     0
  3
LONGDASH_DASH __ . __ . __
 72
    65
 73
     4
 40
0.85
 49
0.4
 74
     0
 49
-0.2
 74
     0
 49
0.05
 74
     0
 49
-0.2
 74
     0
  0
LTYPE
  5
185
330
5
100
AcDbSymbolTableRecord
100
AcDbLinetypeTableRecord
  2
LONGDASH_DASH_DASH
 70
     0
  3
LONGDASH_DASH_DASH __ . . __ . . __
 72
    65
 73
     6
 40
1.1
 49
0.4
 74
     0
 49
-0.2
 74
     0
 49
0.05
 74
     0
 49
-0.2
 74
     0
 49
0.05
 74
     0
 49
-0.2
 74
     0
  0
LTYPE
  5
277
330
5
100
AcDbSymbolTableRecord
100
AcDbLinetypeTableRecord
  2
CENTER
 70
     0
  3
 Center ____ _ ____ _ ____ _ ____ _ ____ _ ____
 72
    65
 73
     4
 40
2.0
 49
1.25
 74
     0
 49
-0.25
 74
     0
 49
0.25
 74
     0
 49
-0.25
 74
     0
  0
ENDTAB
  0
TABLE
  2
LAYER
  5
2
102
{ACAD_XDICTIONARY
360
1A7
102
}
330
0
100
AcDbSymbolTable
 70
    16
  0
LAYER
  5
14D
330
2
100
AcDbSymbolTableRecord
100
AcDbLayerTableRecord
  2
200
 70
     0
 62
     2
  6
Continuous
370
    50
390
F
  0
LAYER
  5
186
330
2
100
AcDbSymbolTableRecord
100
AcDbLayerTableRecord
  2
0
 70
     0
 62
    -1
  6
Continuous
370
    -3
390
F
  0
LAYER
  5
187
330
2
100
AcDbSymbolTableRecord
100
AcDbLayerTableRecord
  2
1
 70
     0
 62
     4
  6
Continuous
370
    50
390
F
  0
LAYER
  5
188
330
2
100
AcDbSymbolTableRecord
100
AcDbLayerTableRecord
  2
2
 70
     0
 62
     7
  6
Continuous
370
    25
390
F
  0
LAYER
  5
189
330
2
100
AcDbSymbolTableRecord
100
AcDbLayerTableRecord
  2
3
 70
     0
 62
     1
  6
DASH
370
    35
390
F
  0
LAYER
  5
18A
330
2
100
AcDbSymbolTableRecord
100
AcDbLayerTableRecord
  2
4
 70
     0
 62
     2
  6
LONGDASH_DASH
370
    25
390
F
  0
LAYER
  5
18B
330
2
100
AcDbSymbolTableRecord
100
AcDbLayerTableRecord
  2
6
 70
     0
 62
     5
  6
Continuous
370
    -3
390
F
  0
LAYER
  5
18C
330
2
100
AcDbSymbolTableRecord
100
AcDbLayerTableRecord
  2
CUT
 70
     0
 62
     1
  6
Continuous
370
    25
390
F
  0
LAYER
  5
18D
330
2
100
AcDbSymbolTableRecord
100
AcDbLayerTableRecord
  2
NOCUT
 70
     0
 62
     7
  6
Continuous
370
    25
390
F
  0
LAYER
  5
18E
330
2
100
AcDbSymbolTableRecord
100
AcDbLayerTableRecord
  2
SK1
 70
     0
 62
     4
  6
Continuous
370
    50
390
F
  0
LAYER
  5
18F
330
2
100
AcDbSymbolTableRecord
100
AcDbLayerTableRecord
  2
SK2
 70
     0
 62
     7
  6
Continuous
370
    25
390
F
  0
LAYER
  5
190
330
2
100
AcDbSymbolTableRecord
100
AcDbLayerTableRecord
  2
SK3
 70
     0
 62
     1
  6
DASH
370
    35
390
F
  0
LAYER
  5
191
330
2
100
AcDbSymbolTableRecord
100
AcDbLayerTableRecord
  2
SK4
 70
     0
 62
     2
  6
LONGDASH_DASH
370
    25
390
F
  0
LAYER
  5
192
330
2
100
AcDbSymbolTableRecord
100
AcDbLayerTableRecord
  2
SK6
 70
     0
 62
     5
  6
Continuous
370
    -3
390
F
  0
LAYER
  5
193
330
2
100
AcDbSymbolTableRecord
100
AcDbLayerTableRecord
  2
INFTOTAL
 70
     0
 62
     9
  6
Continuous
370
    18
390
F
  0
LAYER
  5
275
330
2
100
AcDbSymbolTableRecord
100
AcDbLayerTableRecord
  2
7
 70
     0
 62
     5
  6
Continuous
370
    -3
390
F
1001
AcAecLayerStandard
1000

1000

  0
ENDTAB
  0
TABLE
  2
STYLE
  5
3
330
0
100
AcDbSymbolTable
 70
     2
  0
STYLE
  5
11
330
3
100
AcDbSymbolTableRecord
100
AcDbTextStyleTableRecord
  2
Standard
 70
     0
 40
0.0
 41
1.0
 50
0.0
 71
     0
 42
0.2
  3
txt
  4

  0
STYLE
  5
14C
330
3
100
AcDbSymbolTableRecord
100
AcDbTextStyleTableRecord
  2
BMG_Text
 70
     0
 40
3.5
 41
1.0
 50
0.0
 71
     0
 42
0.2
  3
monos.ttf
  4

1001
ACAD
1000
Monospac821 BT
1071
       49
  0
ENDTAB
  0
TABLE
  2
VIEW
  5
6
330
0
100
AcDbSymbolTable
 70
     0
  0
ENDTAB
  0
TABLE
  2
UCS
  5
7
330
0
100
AcDbSymbolTable
 70
     0
  0
ENDTAB
  0
TABLE
  2
APPID
  5
9
330
0
100
AcDbSymbolTable
 70
     2
  0
APPID
  5
12
330
9
100
AcDbSymbolTableRecord
100
AcDbRegAppTableRecord
  2
ACAD
 70
     0
  0
APPID
  5
276
330
9
100
AcDbSymbolTableRecord
100
AcDbRegAppTableRecord
  2
AcAecLayerStandard
 70
     0
  0
ENDTAB
  0
TABLE
  2
DIMSTYLE
  5
A
330
0
100
AcDbSymbolTable
 70
     1
100
AcDbDimStyleTable
  0
DIMSTYLE
105
28
330
A
100
AcDbSymbolTableRecord
100
AcDbDimStyleTableRecord
  2
Standard
 70
     0
178
     0
340
11
  0
ENDTAB
  0
TABLE
  2
BLOCK_RECORD
  5
1
330
0
100
AcDbSymbolTable
 70
     0
  0
BLOCK_RECORD
  5
1D
330
1
100
AcDbSymbolTableRecord
100
AcDbBlockTableRecord
  2
*Model_Space
340
1E
  0
BLOCK_RECORD
  5
1B
330
1
100
AcDbSymbolTableRecord
100
AcDbBlockTableRecord
  2
*Paper_Space
340
1C
  0
ENDTAB
  0
ENDSEC
  0
SECTION
  2
BLOCKS
  0
BLOCK
  5
135
330
1D
100
AcDbEntity
  8
0
100
AcDbBlockBegin
  2
*Model_Space
 70
     0
 10
0.0
 20
0.0
 30
0.0
  3
*Model_Space
  1

  0
ENDBLK
  5
136
330
1D
100
AcDbEntity
  8
0
100
AcDbBlockEnd
  0
BLOCK
  5
133
330
1B
100
AcDbEntity
 67
     1
  8
0
100
AcDbBlockBegin
  2
*Paper_Space
 70
     0
 10
0.0
 20
0.0
 30
0.0
  3
*Paper_Space
  1

  0
ENDBLK
  5
134
330
1B
100
AcDbEntity
 67
     1
  8
0
100
AcDbBlockEnd
  0
ENDSEC
  0
SECTION
  2
ENTITIES
  0
LINE
  5
38F
330
1D
100
AcDbEntity
  8
1
100
AcDbLine
 10
0.2499999999989058
 20
-42.5
 30
0.0
 11
0.2499999999989058
 21
-45.0
 31
0.0
  0
LINE
  5
390
330
1D
100
AcDbEntity
  8
1
100
AcDbLine
 10
30.3033320999989
 20
-43.0
 30
0.0
 11
29.7674337149989
 21
-45.0
 31
0.0
  0
LINE
  5
391
330
1D
100
AcDbEntity
  8
1
100
AcDbLine
 10
0.2499999999989058
 20
-45.0
 30
0.0
 11
29.7674337149989
 21
-45.0
 31
0.0
  0
LINE
  5
392
330
1D
100
AcDbEntity
  8
1
100
AcDbLine
 10
30.4282032299989
 20
43.0
 30
0.0
 11
29.8923048449989
 21
45.0
 31
0.0
  0
LINE
  5
393
330
1D
100
AcDbEntity
  8
1
100
AcDbLine
 10
-0.0000000000010942
 20
-31.0
 30
0.0
 11
0.2499999999989058
 21
-31.0
 31
0.0
  0
LINE
  5
394
330
1D
100
AcDbEntity
  8
1
100
AcDbLine
 10
0.2499999999989058
 20
31.0
 30
0.0
 11
-0.0000000000010942
 21
31.0
 31
0.0
  0
LINE
  5
395
330
1D
100
AcDbEntity
  8
1
100
AcDbLine
 10
66.96905989199891
 20
-40.40000000000001
 30
0.0
 11
67.19999999999891
 21
-40.0
 31
0.0
  0
ARC
  5
396
330
1D
100
AcDbEntity
  8
SK1
100
AcDbCircle
 10
-0.3000000000010914
 20
-18.20000000000002
 30
0.0
 40
0.5
100
AcDbArc
 50
53.13010235399965
 51
105.0000000000016
  0
ARC
  5
397
330
1D
100
AcDbEntity
  8
SK1
100
AcDbCircle
 10
-0.3000000000010914
 20
18.19999999999999
 30
0.0
 40
0.5
100
AcDbArc
 50
254.9999999999984
 51
306.8698976460005
  0
ARC
  5
398
330
1D
100
AcDbEntity
  8
SK1
100
AcDbCircle
 10
-39.0185045420011
 20
-17.0
 30
0.0
 40
1.0
100
AcDbArc
 50
209.9999999999999
 51
280.0000000000002
  0
ARC
  5
399
330
1D
100
AcDbEntity
  8
SK1
100
AcDbCircle
 10
-39.0185045420011
 20
17.0
 30
0.0
 40
1.0
100
AcDbArc
 50
79.9999999999998
 51
150.0000000000001
  0
LINE
  5
39A
330
1D
100
AcDbEntity
  8
SK1
100
AcDbLine
 10
-35.00000000000109
 20
-18.0
 30
0.0
 11
-1.485441491001097
 21
-18.0
 31
0.0
  0
LINE
  5
39B
330
1D
100
AcDbEntity
  8
SK1
100
AcDbLine
 10
-1.485441491001097
 20
18.0
 30
0.0
 11
-35.00000000000109
 21
18.0
 31
0.0
  0
LINE
  5
39C
330
1D
100
AcDbEntity
  8
SK1
100
AcDbLine
 10
-35.00000000000109
 20
18.0
 30
0.0
 11
-37.1874867920011
 21
17.69256877999999
 31
0.0
  0
LINE
  5
39D
330
1D
100
AcDbEntity
  8
SK1
100
AcDbLine
 10
-37.1874867920011
 20
-17.69256878000002
 30
0.0
 11
-35.00000000000109
 21
-18.0
 31
0.0
  0
LINE
  5
39E
330
1D
100
AcDbEntity
  8
SK1
100
AcDbLine
 10
-1.485441491001097
 20
-18.0
 30
0.0
 11
-0.4294095230010981
 21
-17.71703708700002
 31
0.0
  0
LINE
  5
39F
330
1D
100
AcDbEntity
  8
SK1
100
AcDbLine
 10
-0.4294095230010981
 20
17.71703708699999
 30
0.0
 11
-1.485441491001097
 21
18.0
 31
0.0
  0
LINE
  5
3A0
330
1D
100
AcDbEntity
  8
SK1
100
AcDbLine
 10
-38.84485636500109
 20
-17.98480775300001
 30
0.0
 11
-37.1874867920011
 21
-17.69256878000002
 31
0.0
  0
LINE
  5
3A1
330
1D
100
AcDbEntity
  8
SK1
100
AcDbLine
 10
-37.1874867920011
 20
17.69256877999999
 30
0.0
 11
-38.84485636500109
 21
17.98480775299998
 31
0.0
  0
LINE
  5
3A2
330
1D
100
AcDbEntity
  8
SK1
100
AcDbLine
 10
-39.88452994600109
 20
17.5
 30
0.0
 11
-40.00000000000109
 21
17.29999999999998
 31
0.0
  0
LINE
  5
3A3
330
1D
100
AcDbEntity
  8
SK1
100
AcDbLine
 10
-40.00000000000109
 20
-17.30000000000001
 30
0.0
 11
-39.88452994600109
 21
-17.5
 31
0.0
  0
LINE
  5
3A4
330
1D
100
AcDbEntity
  8
1
100
AcDbLine
 10
60.0499999999989
 20
31.35005055599999
 30
0.0
 11
60.0499999999989
 21
37.505
 31
0.0
  0
ARC
  5
3A5
330
1D
100
AcDbEntity
  8
1
100
AcDbCircle
 10
36.89251869299889
 20
45.11710001399999
 30
0.0
 40
0.885352466
100
AcDbArc
 50
87.43009037599853
 51
181.0339015509994
  0
LINE
  5
3A6
330
1D
100
AcDbEntity
  8
1
100
AcDbLine
 10
42.50378309099889
 20
46.005
 30
0.0
 11
36.9321195579989
 21
46.005
 31
0.0
  0
LINE
  5
3A7
330
1D
100
AcDbEntity
  8
1
100
AcDbLine
 10
59.09999999999891
 20
46.005
 30
0.0
 11
53.49328229499892
 21
46.005
 31
0.0
  0
LINE
  5
3A8
330
1D
100
AcDbEntity
  8
1
100
AcDbLine
 10
35.99999999999889
 20
45.10135317999999
 30
0.0
 11
35.99999999999889
 21
37.79422863399998
 31
0.0
  0
LINE
  5
3A9
330
1D
100
AcDbEntity
  8
1
100
AcDbLine
 10
52.2452890619989
 20
45.79812072099998
 30
0.0
 11
51.09999999999891
 21
46.10499999999999
 31
0.0
  0
LINE
  5
3AA
330
1D
100
AcDbEntity
  8
1
100
AcDbLine
 10
44.8999999999989
 20
46.10499999999999
 30
0.0
 11
43.75290738999891
 21
45.79763746199998
 31
0.0
  0
LINE
  5
3AB
330
1D
100
AcDbEntity
  8
1
100
AcDbLine
 10
32.0873205079989
 20
-40.40000000000001
 30
0.0
 11
43.2461524229989
 21
-43.39000000000001
 31
0.0
  0
LINE
  5
3AC
330
1D
100
AcDbEntity
  8
1
100
AcDbLine
 10
52.75384757699891
 20
-43.39000000000001
 30
0.0
 11
63.80926296399892
 21
-40.40000000000001
 31
0.0
  0
LINE
  5
3AD
330
1D
100
AcDbEntity
  8
1
100
AcDbLine
 10
31.49999999999889
 20
39.0
 30
0.0
 11
30.4282032299989
 21
43.0
 31
0.0
  0
LINE
  5
3AE
330
1D
100
AcDbEntity
  8
1
100
AcDbLine
 10
48.88634622899892
 20
34.34134256899998
 30
0.0
 11
31.49999999999889
 21
39.0
 31
0.0
  0
LINE
  5
3AF
330
1D
100
AcDbEntity
  8
1
100
AcDbLine
 10
48.88634622899892
 20
34.34134256899998
 30
0.0
 11
45.1955727349989
 21
33.77949344799998
 31
0.0
  0
LINE
  5
3B0
330
1D
100
AcDbEntity
  8
1
100
AcDbLine
 10
45.1955727349989
 20
33.77949344799998
 30
0.0
 11
41.56634906199892
 21
33.20531368099998
 31
0.0
  0
LINE
  5
3B1
330
1D
100
AcDbEntity
  8
1
100
AcDbLine
 10
41.56634906199892
 20
33.20531368099998
 30
0.0
 11
37.99999999999889
 21
32.61901286099999
 31
0.0
  0
LINE
  5
3B2
330
1D
100
AcDbEntity
  8
1
100
AcDbLine
 10
37.99999999999889
 20
32.61901286099999
 30
0.0
 11
17.19999999999891
 21
32.61901286099999
 31
0.0
  0
LINE
  5
3B3
330
1D
100
AcDbEntity
  8
1
100
AcDbLine
 10
17.19999999999891
 20
32.61901286099999
 30
0.0
 11
16.44999999999891
 21
31.88945750599999
 31
0.0
  0
LINE
  5
3B4
330
1D
100
AcDbEntity
  8
1
100
AcDbLine
 10
16.44999999999891
 20
31.88945750599999
 30
0.0
 11
0.7499999999989058
 21
31.88945750599999
 31
0.0
  0
LINE
  5
3B5
330
1D
100
AcDbEntity
  8
1
100
AcDbLine
 10
0.7499999999989058
 20
43.0
 30
0.0
 11
0.7499999999989058
 21
31.88945750599999
 31
0.0
  0
LINE
  5
3B6
330
1D
100
AcDbEntity
  8
1
100
AcDbLine
 10
0.7499999999989058
 20
43.0
 30
0.0
 11
30.4282032299989
 21
43.0
 31
0.0
  0
LINE
  5
3B7
330
1D
100
AcDbEntity
  8
1
100
AcDbLine
 10
0.2499999999989058
 20
31.68102744499998
 30
0.0
 11
0.2499999999989058
 21
42.5
 31
0.0
  0
LINE
  5
3B8
330
1D
100
AcDbEntity
  8
1
100
AcDbLine
 10
0.7499999999989058
 20
43.0
 30
0.0
 11
0.2499999999989058
 21
42.5
 31
0.0
  0
LINE
  5
3B9
330
1D
100
AcDbEntity
  8
1
100
AcDbLine
 10
0.2499999999989058
 20
31.68102744499998
 30
0.0
 11
0.7499999999989058
 21
31.88945750599999
 31
0.0
  0
LINE
  5
3BA
330
1D
100
AcDbEntity
  8
1
100
AcDbLine
 10
17.19999999999891
 20
-32.61901286100002
 30
0.0
 11
16.44999999999891
 21
-31.88945750600001
 31
0.0
  0
LINE
  5
3BB
330
1D
100
AcDbEntity
  8
1
100
AcDbLine
 10
16.44999999999891
 20
-31.88945750600001
 30
0.0
 11
16.44999999999891
 21
31.88945750599999
 31
0.0
  0
LINE
  5
3BC
330
1D
100
AcDbEntity
  8
1
100
AcDbLine
 10
17.19999999999891
 20
-32.61901286100002
 30
0.0
 11
17.19999999999891
 21
32.61901286099999
 31
0.0
  0
LINE
  5
3BD
330
1D
100
AcDbEntity
  8
1
100
AcDbLine
 10
0.2499999999989058
 20
-31.68102744500001
 30
0.0
 11
0.2499999999989058
 21
31.68102744499998
 31
0.0
  0
LINE
  5
3BE
330
1D
100
AcDbEntity
  8
1
100
AcDbLine
 10
0.7499999999989058
 20
31.88945750599999
 30
0.0
 11
0.7499999999989058
 21
-31.88945750600001
 31
0.0
  0
LINE
  5
3BF
330
1D
100
AcDbEntity
  8
1
100
AcDbLine
 10
0.2499999999989058
 20
-31.68102744500001
 30
0.0
 11
0.7499999999989058
 21
-31.88945750600001
 31
0.0
  0
LINE
  5
3C0
330
1D
100
AcDbEntity
  8
1
100
AcDbLine
 10
16.44999999999891
 20
-31.88945750600001
 30
0.0
 11
0.7499999999989058
 21
-31.88945750600001
 31
0.0
  0
LINE
  5
3C1
330
1D
100
AcDbEntity
  8
1
100
AcDbLine
 10
37.99999999999889
 20
-32.61901286100002
 30
0.0
 11
17.19999999999891
 21
-32.61901286100002
 31
0.0
  0
LINE
  5
3C2
330
1D
100
AcDbEntity
  8
1
100
AcDbLine
 10
63.15854811599891
 20
-36.32300723500001
 30
0.0
 11
56.61900345699891
 21
-35.45094810700002
 31
0.0
  0
LINE
  5
3C3
330
1D
100
AcDbEntity
  8
1
100
AcDbLine
 10
56.61900345699891
 20
-35.45094810700002
 30
0.0
 11
50.24170466899889
 21
-34.54229795400002
 31
0.0
  0
LINE
  5
3C4
330
1D
100
AcDbEntity
  8
1
100
AcDbLine
 10
50.24170466899889
 20
-34.54229795400002
 30
0.0
 11
44.03323413999891
 21
-33.597994648
 31
0.0
  0
LINE
  5
3C5
330
1D
100
AcDbEntity
  8
1
100
AcDbLine
 10
44.03323413999891
 20
-33.597994648
 30
0.0
 11
37.99999999999889
 21
-32.61901286100002
 31
0.0
  0
LINE
  5
3C6
330
1D
100
AcDbEntity
  8
1
100
AcDbLine
 10
66.96905989199891
 20
-40.40000000000001
 30
0.0
 11
30.99999999999889
 21
-40.40000000000001
 31
0.0
  0
LINE
  5
3C7
330
1D
100
AcDbEntity
  8
1
100
AcDbLine
 10
30.3033320999989
 20
-43.0
 30
0.0
 11
30.99999999999889
 21
-40.40000000000001
 31
0.0
  0
LINE
  5
3C8
330
1D
100
AcDbEntity
  8
1
100
AcDbLine
 10
30.3033320999989
 20
-43.0
 30
0.0
 11
0.7499999999989058
 21
-43.0
 31
0.0
  0
LINE
  5
3C9
330
1D
100
AcDbEntity
  8
1
100
AcDbLine
 10
0.7499999999989058
 20
-31.88945750600001
 30
0.0
 11
0.7499999999989058
 21
-43.0
 31
0.0
  0
LINE
  5
3CA
330
1D
100
AcDbEntity
  8
1
100
AcDbLine
 10
0.2499999999989058
 20
-42.5
 30
0.0
 11
0.2499999999989058
 21
-31.68102744500001
 31
0.0
  0
LINE
  5
3CB
330
1D
100
AcDbEntity
  8
1
100
AcDbLine
 10
0.2499999999989058
 20
-42.5
 30
0.0
 11
0.7499999999989058
 21
-43.0
 31
0.0
  0
LINE
  5
3CC
330
1D
100
AcDbEntity
  8
1
100
AcDbLine
 10
37.99999999999889
 20
-32.61901286100002
 30
0.0
 11
37.99999999999889
 21
32.61901286099999
 31
0.0
  0
LINE
  5
3CD
330
1D
100
AcDbEntity
  8
1
100
AcDbLine
 10
64.88446863999891
 20
30.054658588
 30
0.0
 11
48.88634622899892
 21
34.34134256899998
 31
0.0
  0
LINE
  5
3CE
330
1D
100
AcDbEntity
  8
1
100
AcDbLine
 10
64.88446863999891
 20
-35.318045783
 30
0.0
 11
64.88446863999891
 21
30.054658588
 31
0.0
  0
ARC
  5
3CF
330
1D
100
AcDbEntity
  8
1
100
AcDbCircle
 10
63.34972261799891
 20
-34.66680182900001
 30
0.0
 40
1.667202459
100
AcDbArc
 50
263.4155331249998
 51
337.0068672399991
  0
CIRCLE
  5
3D0
330
1D
100
AcDbEntity
  8
1
100
AcDbCircle
 10
31.99999999999889
 20
0.0
 30
0.0
 40
5.25
  0
LINE
  5
3D1
330
1D
100
AcDbEntity
  8
1
100
AcDbLine
 10
-0.0000000000010942
 20
-31.0
 30
0.0
 11
-0.0000000000010942
 21
31.0
 31
0.0
  0
LINE
  5
3D2
330
1D
100
AcDbEntity
  8
1
100
AcDbLine
 10
64.89059892299892
 20
-35.31033915
 30
0.0
 11
64.88446863999891
 21
-35.318045783
 31
0.0
  0
LINE
  5
3D3
330
1D
100
AcDbEntity
  8
1
100
AcDbLine
 10
67.19999999999891
 20
-32.36896661900002
 30
0.0
 11
64.89059892299892
 21
-35.31033915
 31
0.0
  0
LINE
  5
3D4
330
1D
100
AcDbEntity
  8
1
100
AcDbLine
 10
67.19999999999891
 20
-32.36896661900002
 30
0.0
 11
67.19999999999891
 21
29.43421382999998
 31
0.0
  0
LINE
  5
3D5
330
1D
100
AcDbEntity
  8
1
100
AcDbLine
 10
67.19999999999891
 20
29.43421382999998
 30
0.0
 11
64.88446863999891
 21
30.054658588
 31
0.0
  0
LINE
  5
3D6
330
1D
100
AcDbEntity
  8
1
100
AcDbLine
 10
67.19999999999891
 20
-40.0
 30
0.0
 11
67.19999999999891
 21
-32.36896661900002
 31
0.0
  0
LINE
  5
3D7
330
1D
100
AcDbEntity
  8
SK1
100
AcDbLine
 10
-35.00000000000109
 20
0.0
 30
0.0
 11
-35.00000000000109
 21
18.0
 31
0.0
  0
LINE
  5
3D8
330
1D
100
AcDbEntity
  8
SK1
100
AcDbLine
 10
-35.00000000000109
 20
-18.0
 30
0.0
 11
-35.00000000000109
 21
0.0
 31
0.0
  0
LINE
  5
3D9
330
1D
100
AcDbEntity
  8
SK1
100
AcDbLine
 10
-1.485441491001097
 20
-18.0
 30
0.0
 11
-1.485441491001097
 21
18.0
 31
0.0
  0
LINE
  5
3DA
330
1D
100
AcDbEntity
  8
SK1
100
AcDbLine
 10
-37.1874867920011
 20
-17.69256878000002
 30
0.0
 11
-37.1874867920011
 21
17.69256877999999
 31
0.0
  0
LINE
  5
3DB
330
1D
100
AcDbEntity
  8
SK1
100
AcDbLine
 10
-40.00000000000109
 20
-17.30000000000001
 30
0.0
 11
-40.00000000000109
 21
17.29999999999998
 31
0.0
  0
CIRCLE
  5
3DC
330
1D
100
AcDbEntity
  8
SK1
100
AcDbCircle
 10
-15.50000000000109
 20
0.0
 30
0.0
 40
6.5
  0
LINE
  5
3DD
330
1D
100
AcDbEntity
  8
1
100
AcDbLine
 10
60.0499999999989
 20
37.505
 30
0.0
 11
51.3999999999989
 21
37.505
 31
0.0
  0
LINE
  5
3DE
330
1D
100
AcDbEntity
  8
1
100
AcDbLine
 10
44.49116309399889
 20
37.505
 30
0.0
 11
37.0794159569989
 21
37.505
 31
0.0
  0
CIRCLE
  5
3DF
330
1D
100
AcDbEntity
  8
SK1
100
AcDbCircle
 10
-15.50000000000109
 20
0.0
 30
0.0
 40
5.541287953
  0
ARC
  5
3E0
330
1D
100
AcDbEntity
  8
1
100
AcDbCircle
 10
59.09999999999891
 20
45.10499999999999
 30
0.0
 40
0.9
100
AcDbArc
 50
0.0
 51
90.0
  0
ARC
  5
3E1
330
1D
100
AcDbEntity
  8
1
100
AcDbCircle
 10
48.06993250799891
 20
75.731143782
 30
0.0
 40
30.243471143
100
AcDbArc
 50
259.3945608
 51
269.8675138479999
  0
ARC
  5
3E2
330
1D
100
AcDbEntity
  8
1
100
AcDbCircle
 10
47.9504212469989
 20
75.514017609
 30
0.0
 40
30.026305048
100
AcDbArc
 50
270.094605533
 51
280.637822399
  0
LINE
  5
3E3
330
1D
100
AcDbEntity
  8
1
100
AcDbLine
 10
50.7995129259989
 20
38.105487074
 30
0.0
 11
51.3999999999989
 21
37.505
 31
0.0
  0
LINE
  5
3E4
330
1D
100
AcDbEntity
  8
1
100
AcDbLine
 10
50.7995129259989
 20
38.105487074
 30
0.0
 11
50.54858052099891
 21
39.60499999999999
 31
0.0
  0
LINE
  5
3E5
330
1D
100
AcDbEntity
  8
1
100
AcDbLine
 10
50.54858052099891
 20
39.60499999999999
 30
0.0
 11
45.4514194789989
 21
39.60499999999999
 31
0.0
  0
LINE
  5
3E6
330
1D
100
AcDbEntity
  8
1
100
AcDbLine
 10
45.4514194789989
 20
39.60499999999999
 30
0.0
 11
45.1825238029989
 21
37.99814280099997
 31
0.0
  0
LINE
  5
3E7
330
1D
100
AcDbEntity
  8
1
100
AcDbLine
 10
44.49116309399889
 20
37.505
 30
0.0
 11
45.1825238029989
 21
37.99814280099997
 31
0.0
  0
LINE
  5
3E8
330
1D
100
AcDbEntity
  8
1
100
AcDbLine
 10
59.99999999999889
 20
37.505
 30
0.0
 11
59.99999999999889
 21
45.10499999999999
 31
0.0
  0
LINE
  5
3E9
330
1D
100
AcDbEntity
  8
1
100
AcDbLine
 10
68.55566093799891
 20
49.41305440499997
 30
0.0
 11
60.21894298399891
 21
47.94306609899999
 31
0.0
  0
ARC
  5
3EA
330
1D
100
AcDbEntity
  8
1
100
AcDbCircle
 10
62.5851932169989
 20
45.20621258999998
 30
0.0
 40
1.6
100
AcDbArc
 50
86.99999999999947
 51
266.9999999999995
  0
LINE
  5
3EB
330
1D
100
AcDbEntity
  8
1
100
AcDbLine
 10
62.50145568699892
 20
43.608405334
 30
0.0
 11
63.90154080599891
 21
43.53502998199997
 31
0.0
  0
LINE
  5
3EC
330
1D
100
AcDbEntity
  8
1
100
AcDbLine
 10
69.93721858699891
 20
37.505
 30
0.0
 11
70.04625805599889
 21
39.58559700799998
 31
0.0
  0
LINE
  5
3ED
330
1D
100
AcDbEntity
  8
1
100
AcDbLine
 10
60.21894298399891
 20
47.94306609899999
 30
0.0
 11
59.09999999999891
 21
46.005
 31
0.0
  0
LINE
  5
3EE
330
1D
100
AcDbEntity
  8
1
100
AcDbLine
 10
68.55566093799891
 20
49.41305440499997
 30
0.0
 11
68.71598790699889
 21
49.09839501099998
 31
0.0
  0
LINE
  5
3EF
330
1D
100
AcDbEntity
  8
1
100
AcDbLine
 10
64.06901586599892
 20
46.73064449399999
 30
0.0
 11
62.66893074699891
 21
46.80401984599999
 31
0.0
  0
LINE
  5
3F0
330
1D
100
AcDbEntity
  8
1
100
AcDbLine
 10
60.0499999999989
 20
37.505
 30
0.0
 11
69.93721858699891
 21
37.505
 31
0.0
  0
LINE
  5
3F1
330
1D
100
AcDbEntity
  8
1
100
AcDbLine
 10
70.03711257099891
 20
39.60262729299998
 30
0.0
 11
70.04625805599889
 21
39.58559700799998
 31
0.0
  0
LINE
  5
3F2
330
1D
100
AcDbEntity
  8
1
100
AcDbLine
 10
61.79884300299889
 20
44.900537902
 30
0.0
 11
69.86088419399888
 21
39.66498713599998
 31
0.0
  0
ARC
  5
3F3
330
1D
100
AcDbEntity
  8
1
100
AcDbCircle
 10
62.01669861699892
 20
45.23600612999999
 30
0.0
 40
0.4
100
AcDbArc
 50
117.0000000000025
 51
236.9999999999969
  0
LINE
  5
3F4
330
1D
100
AcDbEntity
  8
1
100
AcDbLine
 10
70.4002429789989
 20
49.956565834
 30
0.0
 11
61.83510241699892
 21
45.59240873899998
 31
0.0
  0
ARC
  5
3F5
330
1D
100
AcDbEntity
  8
1
100
AcDbCircle
 10
70.5818391789989
 20
49.60016322399997
 30
0.0
 40
0.4
100
AcDbArc
 50
357.0000000000026
 51
117.0000000000025
  0
LINE
  5
3F6
330
1D
100
AcDbEntity
  8
1
100
AcDbLine
 10
70.47819162199889
 20
39.97952098099998
 30
0.0
 11
70.98129099299891
 21
49.57922884199999
 31
0.0
  0
ARC
  5
3F7
330
1D
100
AcDbEntity
  8
1
100
AcDbCircle
 10
70.07873980799891
 20
40.00045536299999
 30
0.0
 40
0.4
100
AcDbArc
 50
236.9999999999969
 51
356.9999999999986
  0
LINE
  5
3F8
330
1D
100
AcDbEntity
  8
1
100
AcDbLine
 10
51.09999999999891
 20
46.10499999999999
 30
0.0
 11
44.8999999999989
 21
46.10499999999999
 31
0.0
  0
LINE
  5
3F9
330
1D
100
AcDbEntity
  8
1
100
AcDbLine
 10
34.88999999999891
 20
0.0
 30
0.0
 11
33.44662432699891
 21
2.5
 31
0.0
  0
LINE
  5
3FA
330
1D
100
AcDbEntity
  8
1
100
AcDbLine
 10
33.44662432699891
 20
2.5
 30
0.0
 11
30.5533756729989
 21
2.5
 31
0.0
  0
LINE
  5
3FB
330
1D
100
AcDbEntity
  8
1
100
AcDbLine
 10
30.5533756729989
 20
2.5
 30
0.0
 11
29.10999999999891
 21
0.0
 31
0.0
  0
LINE
  5
3FC
330
1D
100
AcDbEntity
  8
1
100
AcDbLine
 10
29.10999999999891
 20
0.0
 30
0.0
 11
30.5533756729989
 21
-2.5
 31
0.0
  0
LINE
  5
3FD
330
1D
100
AcDbEntity
  8
1
100
AcDbLine
 10
30.5533756729989
 20
-2.5
 30
0.0
 11
33.44662432699891
 21
-2.5
 31
0.0
  0
LINE
  5
3FE
330
1D
100
AcDbEntity
  8
1
100
AcDbLine
 10
33.44662432699891
 20
-2.5
 30
0.0
 11
34.88999999999891
 21
0.0
 31
0.0
  0
LINE
  5
3FF
330
1D
100
AcDbEntity
  8
1
100
AcDbLine
 10
44.06766692199889
 20
-43.39000000000001
 30
0.0
 11
43.2461524229989
 21
-43.39000000000001
 31
0.0
  0
LINE
  5
400
330
1D
100
AcDbEntity
  8
1
100
AcDbLine
 10
52.75384757699891
 20
-43.39000000000001
 30
0.0
 11
44.06766692199889
 21
-43.39000000000001
 31
0.0
  0
LINE
  5
401
330
1D
100
AcDbEntity
  8
1
100
AcDbLine
 10
59.99999999999889
 20
45.10499999999999
 30
0.0
 11
59.9748168729989
 21
45.09596722999999
 31
0.0
  0
LINE
  5
402
330
1D
100
AcDbEntity
  8
1
100
AcDbLine
 10
59.9748168729989
 20
45.09596722999999
 30
0.0
 11
59.8671627119989
 21
45.05753551699999
 31
0.0
  0
LINE
  5
403
330
1D
100
AcDbEntity
  8
1
100
AcDbLine
 10
59.8671627119989
 20
45.05753551699999
 30
0.0
 11
59.67209175499889
 21
44.98865152599998
 31
0.0
  0
LINE
  5
404
330
1D
100
AcDbEntity
  8
1
100
AcDbLine
 10
59.67209175499889
 20
44.98865152599998
 30
0.0
 11
59.39009274099891
 21
44.89080341799999
 31
0.0
  0
LINE
  5
405
330
1D
100
AcDbEntity
  8
1
100
AcDbLine
 10
59.39009274099891
 20
44.89080341799999
 30
0.0
 11
59.0185691189989
 21
44.76505061
 31
0.0
  0
LINE
  5
406
330
1D
100
AcDbEntity
  8
1
100
AcDbLine
 10
59.0185691189989
 20
44.76505061
 30
0.0
 11
58.5784359439989
 21
44.620783238
 31
0.0
  0
LINE
  5
407
330
1D
100
AcDbEntity
  8
1
100
AcDbLine
 10
58.5784359439989
 20
44.620783238
 30
0.0
 11
58.06031466399892
 21
44.457598222
 31
0.0
  0
LINE
  5
408
330
1D
100
AcDbEntity
  8
1
100
AcDbLine
 10
58.06031466399892
 20
44.457598222
 30
0.0
 11
57.45710214299891
 21
44.27682647399999
 31
0.0
  0
LINE
  5
409
330
1D
100
AcDbEntity
  8
1
100
AcDbLine
 10
57.45710214299891
 20
44.27682647399999
 30
0.0
 11
56.77890143699889
 21
44.085650058
 31
0.0
  0
LINE
  5
40A
330
1D
100
AcDbEntity
  8
1
100
AcDbLine
 10
56.77890143699889
 20
44.085650058
 30
0.0
 11
55.37367277999891
 21
43.73129666099999
 31
0.0
  0
LINE
  5
40B
330
1D
100
AcDbEntity
  8
1
100
AcDbLine
 10
55.37367277999891
 20
43.73129666099999
 30
0.0
 11
54.58798645199892
 21
43.55838175699998
 31
0.0
  0
LINE
  5
40C
330
1D
100
AcDbEntity
  8
1
100
AcDbLine
 10
54.58798645199892
 20
43.55838175699998
 30
0.0
 11
53.74701549499892
 21
43.39384048399998
 31
0.0
  0
LINE
  5
40D
330
1D
100
AcDbEntity
  8
1
100
AcDbLine
 10
53.74701549499892
 20
43.39384048399998
 30
0.0
 11
53.1376403869989
 21
43.28810139399999
 31
0.0
  0
LINE
  5
40E
330
1D
100
AcDbEntity
  8
1
100
AcDbLine
 10
53.1376403869989
 20
43.28810139399999
 30
0.0
 11
51.85584341699891
 21
43.10332756099999
 31
0.0
  0
LINE
  5
40F
330
1D
100
AcDbEntity
  8
1
100
AcDbLine
 10
51.85584341699891
 20
43.10332756099999
 30
0.0
 11
50.26830202499892
 21
42.946489305
 31
0.0
  0
LINE
  5
410
330
1D
100
AcDbEntity
  8
1
100
AcDbLine
 10
50.26830202499892
 20
42.946489305
 30
0.0
 11
48.34996503999892
 21
42.865098504
 31
0.0
  0
LINE
  5
411
330
1D
100
AcDbEntity
  8
1
100
AcDbLine
 10
48.34996503999892
 20
42.865098504
 30
0.0
 11
47.36858263799891
 21
42.86958092399999
 31
0.0
  0
LINE
  5
412
330
1D
100
AcDbEntity
  8
1
100
AcDbLine
 10
47.36858263799891
 20
42.86958092399999
 30
0.0
 11
46.3768691119989
 21
42.90583692199999
 31
0.0
  0
LINE
  5
413
330
1D
100
AcDbEntity
  8
1
100
AcDbLine
 10
46.3768691119989
 20
42.90583692199999
 30
0.0
 11
45.49399362799889
 21
42.96484472999998
 31
0.0
  0
LINE
  5
414
330
1D
100
AcDbEntity
  8
1
100
AcDbLine
 10
45.49399362799889
 20
42.96484472999998
 30
0.0
 11
43.51214020099891
 21
43.18801042299998
 31
0.0
  0
LINE
  5
415
330
1D
100
AcDbEntity
  8
1
100
AcDbLine
 10
43.51214020099891
 20
43.18801042299998
 30
0.0
 11
42.43868650299891
 21
43.360408167
 31
0.0
  0
LINE
  5
416
330
1D
100
AcDbEntity
  8
1
100
AcDbLine
 10
42.43868650299891
 20
43.360408167
 30
0.0
 11
41.5670789569989
 21
43.52643368899999
 31
0.0
  0
LINE
  5
417
330
1D
100
AcDbEntity
  8
1
100
AcDbLine
 10
41.5670789569989
 20
43.52643368899999
 30
0.0
 11
40.73672355799891
 21
43.70589437699999
 31
0.0
  0
LINE
  5
418
330
1D
100
AcDbEntity
  8
1
100
AcDbLine
 10
40.73672355799891
 20
43.70589437699999
 30
0.0
 11
39.94261498099891
 21
43.89657568499999
 31
0.0
  0
LINE
  5
419
330
1D
100
AcDbEntity
  8
1
100
AcDbLine
 10
39.94261498099891
 20
43.89657568499999
 30
0.0
 11
39.20327299499891
 21
44.09050925999998
 31
0.0
  0
LINE
  5
41A
330
1D
100
AcDbEntity
  8
1
100
AcDbLine
 10
39.20327299499891
 20
44.09050925999998
 30
0.0
 11
38.31626776699889
 21
44.34356950299997
 31
0.0
  0
LINE
  5
41B
330
1D
100
AcDbEntity
  8
1
100
AcDbLine
 10
38.31626776699889
 20
44.34356950299997
 30
0.0
 11
37.54882882199891
 21
44.58003043499997
 31
0.0
  0
LINE
  5
41C
330
1D
100
AcDbEntity
  8
1
100
AcDbLine
 10
37.54882882199891
 20
44.58003043499997
 30
0.0
 11
37.1107507839989
 21
44.72212910299999
 31
0.0
  0
LINE
  5
41D
330
1D
100
AcDbEntity
  8
1
100
AcDbLine
 10
37.1107507839989
 20
44.72212910299999
 30
0.0
 11
36.67523790499891
 21
44.86842906999999
 31
0.0
  0
LINE
  5
41E
330
1D
100
AcDbEntity
  8
1
100
AcDbLine
 10
36.67523790499891
 20
44.86842906999999
 30
0.0
 11
36.19305462499889
 21
45.036167388
 31
0.0
  0
LINE
  5
41F
330
1D
100
AcDbEntity
  8
1
100
AcDbLine
 10
36.19305462499889
 20
45.036167388
 30
0.0
 11
36.08590805799892
 21
45.074252575
 31
0.0
  0
LINE
  5
420
330
1D
100
AcDbEntity
  8
1
100
AcDbLine
 10
36.08590805799892
 20
45.074252575
 30
0.0
 11
36.00890454899891
 21
45.10180424299998
 31
0.0
  0
LINE
  5
421
330
1D
100
AcDbEntity
  8
1
100
AcDbLine
 10
36.00890454899891
 20
45.10180424299998
 30
0.0
 11
36.0101989989989
 21
45.10133986799997
 31
0.0
  0
ARC
  5
422
330
1D
100
AcDbEntity
  8
1
100
AcDbCircle
 10
48.00122239699891
 20
71.56796844799999
 30
0.0
 40
27.868408999
100
AcDbArc
 50
246.594948027
 51
293.469234801
  0
LINE
  5
423
330
1D
100
AcDbEntity
  8
SK3
100
AcDbLine
 10
35.9117572489989
 20
-35.75
 30
0.0
 11
35.9117572489989
 21
38.48774618899998
 31
0.0
  0
LINE
  5
424
330
1D
100
AcDbEntity
  8
SK3
100
AcDbLine
 10
63.41075724899892
 20
-35.75
 30
0.0
 11
33.41075724899892
 21
-35.75
 31
0.0
  0
LINE
  5
425
330
1D
100
AcDbEntity
  8
SK3
100
AcDbLine
 10
33.41075724899892
 20
-35.75
 30
0.0
 11
33.41075724899892
 21
-40.40000000000001
 31
0.0
  0
LINE
  5
426
330
1D
100
AcDbEntity
  8
SK3
100
AcDbLine
 10
63.41075724899892
 20
-40.40000000000001
 30
0.0
 11
63.41075724899892
 21
-35.75
 31
0.0
  0
LINE
  5
427
330
1D
100
AcDbEntity
  8
SK3
100
AcDbLine
 10
60.9117572489989
 20
30.44927041599999
 30
0.0
 11
60.9117572489989
 21
-35.75
 31
0.0
  0
TEXT
  5
428
330
1D
100
AcDbEntity
  8
SK6
100
AcDbText
 10
114.634287102257
 20
-80.7079183693935
 30
0.0
 40
3.5
  1
310.607
  7
BMG_Text
100
AcDbText
  0
LINE
  5
429
330
1D
100
AcDbEntity
  8
SK3
100
AcDbLine
 10
-2.754276418001098
 20
7.994298109999988
 30
0.0
 11
-2.754276418001098
 21
-8.022187791000022
 31
0.0
  0
LINE
  5
42A
330
1D
100
AcDbEntity
  8
SK3
100
AcDbLine
 10
-39.7471490550011
 20
7.994298109999988
 30
0.0
 11
-2.754276418001098
 21
7.994298109999988
 31
0.0
  0
LINE
  5
42B
330
1D
100
AcDbEntity
  8
SK3
100
AcDbLine
 10
-39.7471490550011
 20
-8.022187791000022
 30
0.0
 11
-2.754276418001098
 21
-8.022187791000022
 31
0.0
  0
LINE
  5
42C
330
1D
100
AcDbEntity
  8
SK2
100
AcDbLine
 10
-50.73194694500108
 20
-18.0
 30
0.0
 11
-35.00000000000109
 21
-18.0
 31
0.0
  0
LINE
  5
42D
330
1D
100
AcDbEntity
  8
SK2
100
AcDbLine
 10
-48.73194694500108
 20
-18.0
 30
0.0
 11
-49.1819469450011
 21
-14.5
 31
0.0
  0
LINE
  5
42E
330
1D
100
AcDbEntity
  8
SK2
100
AcDbLine
 10
-49.1819469450011
 20
-14.5
 30
0.0
 11
-48.2819469450011
 21
-14.5
 31
0.0
  0
LINE
  5
42F
330
1D
100
AcDbEntity
  8
SK2
100
AcDbLine
 10
-48.2819469450011
 20
-14.5
 30
0.0
 11
-48.73194694500108
 21
-18.0
 31
0.0
  0
LINE
  5
430
330
1D
100
AcDbEntity
  8
SK2
100
AcDbLine
 10
-50.73194694500108
 20
18.0
 30
0.0
 11
-35.00000000000109
 21
18.0
 31
0.0
  0
LINE
  5
431
330
1D
100
AcDbEntity
  8
SK2
100
AcDbLine
 10
-48.73194694500108
 20
18.0
 30
0.0
 11
-48.2819469450011
 21
14.5
 31
0.0
  0
LINE
  5
432
330
1D
100
AcDbEntity
  8
SK2
100
AcDbLine
 10
-48.2819469450011
 20
14.5
 30
0.0
 11
-49.1819469450011
 21
14.5
 31
0.0
  0
LINE
  5
433
330
1D
100
AcDbEntity
  8
SK2
100
AcDbLine
 10
-49.1819469450011
 20
14.5
 30
0.0
 11
-48.73194694500108
 21
18.0
 31
0.0
  0
LINE
  5
434
330
1D
100
AcDbEntity
  8
SK2
100
AcDbLine
 10
-48.73194694500108
 20
-14.5
 30
0.0
 11
-48.73194694500108
 21
14.5
 31
0.0
  0
TEXT
  5
435
330
1D
100
AcDbEntity
  8
SK2
100
AcDbText
 10
-50.23194694500108
 20
0.3314058479999744
 30
0.0
 40
3.5
  1
36
 50
90.0
  7
BMG_Text
100
AcDbText
  0
CIRCLE
  5
436
330
1D
100
AcDbEntity
  8
SK2
100
AcDbCircle
 10
-51.48194694500108
 20
-1.918594152000026
 30
0.0
 40
1.25
  0
LINE
  5
437
330
1D
100
AcDbEntity
  8
SK2
100
AcDbLine
 10
-50.23194694500108
 20
-3.168594152000026
 30
0.0
 11
-52.73194694500108
 21
-0.6685941520000256
 31
0.0
  0
LINE
  5
438
330
1D
100
AcDbEntity
  8
1
100
AcDbLine
 10
0.2499999999989058
 20
45.0
 30
0.0
 11
29.8923048449989
 21
45.0
 31
0.0
  0
LINE
  5
439
330
1D
100
AcDbEntity
  8
1
100
AcDbLine
 10
0.2499999999989058
 20
42.5
 30
0.0
 11
0.2499999999989058
 21
45.0
 31
0.0
  0
LINE
  5
43A
330
1D
100
AcDbEntity
  8
2
100
AcDbLine
 10
-58.31710815400109
 20
-45.0
 30
0.0
 11
0.2499999999989058
 21
-45.0
 31
0.0
  0
LINE
  5
43B
330
1D
100
AcDbEntity
  8
2
100
AcDbLine
 10
-56.31710815400109
 20
-45.0
 30
0.0
 11
-56.76710815400109
 21
-41.5
 31
0.0
  0
LINE
  5
43C
330
1D
100
AcDbEntity
  8
2
100
AcDbLine
 10
-56.76710815400109
 20
-41.5
 30
0.0
 11
-55.8671081540011
 21
-41.5
 31
0.0
  0
LINE
  5
43D
330
1D
100
AcDbEntity
  8
2
100
AcDbLine
 10
-55.8671081540011
 20
-41.5
 30
0.0
 11
-56.31710815400109
 21
-45.0
 31
0.0
  0
LINE
  5
43E
330
1D
100
AcDbEntity
  8
2
100
AcDbLine
 10
-58.31710815400109
 20
45.0
 30
0.0
 11
0.2499999999989058
 21
45.0
 31
0.0
  0
LINE
  5
43F
330
1D
100
AcDbEntity
  8
2
100
AcDbLine
 10
-56.31710815400109
 20
45.0
 30
0.0
 11
-55.8671081540011
 21
41.5
 31
0.0
  0
LINE
  5
440
330
1D
100
AcDbEntity
  8
2
100
AcDbLine
 10
-55.8671081540011
 20
41.5
 30
0.0
 11
-56.76710815400109
 21
41.5
 31
0.0
  0
LINE
  5
441
330
1D
100
AcDbEntity
  8
2
100
AcDbLine
 10
-56.76710815400109
 20
41.5
 30
0.0
 11
-56.31710815400109
 21
45.0
 31
0.0
  0
LINE
  5
442
330
1D
100
AcDbEntity
  8
2
100
AcDbLine
 10
-56.31710815400109
 20
-41.5
 30
0.0
 11
-56.31710815400109
 21
41.5
 31
0.0
  0
TEXT
  5
443
330
1D
100
AcDbEntity
  8
2
100
AcDbText
 10
-57.81710815400109
 20
0.1399989939999955
 30
0.0
 40
3.5
  1
90
 50
90.0
  7
BMG_Text
100
AcDbText
  0
CIRCLE
  5
444
330
1D
100
AcDbEntity
  8
2
100
AcDbCircle
 10
-59.0671081540011
 20
-2.110001006000005
 30
0.0
 40
1.25
  0
LINE
  5
445
330
1D
100
AcDbEntity
  8
2
100
AcDbLine
 10
-57.81710815400109
 20
-3.360001006000005
 30
0.0
 11
-60.3171081540011
 21
-0.8600010060000045
 31
0.0
  0
LINE
  5
446
330
1D
100
AcDbEntity
  8
2
100
AcDbLine
 10
-0.0000000000010942
 20
-55.01643371600002
 30
0.0
 11
-0.0000000000010942
 21
-18.0
 31
0.0
  0
LINE
  5
447
330
1D
100
AcDbEntity
  8
2
100
AcDbLine
 10
-0.0000000000010942
 20
-53.01643371600002
 30
0.0
 11
3.499999986998901
 21
-52.56643361600001
 31
0.0
  0
LINE
  5
448
330
1D
100
AcDbEntity
  8
2
100
AcDbLine
 10
3.499999986998901
 20
-52.56643361600001
 30
0.0
 11
3.50000001299891
 21
-53.46643361600002
 31
0.0
  0
LINE
  5
449
330
1D
100
AcDbEntity
  8
2
100
AcDbLine
 10
3.50000001299891
 20
-53.46643361600002
 30
0.0
 11
-0.0000000000010942
 21
-53.01643371600002
 31
0.0
  0
LINE
  5
44A
330
1D
100
AcDbEntity
  8
2
100
AcDbLine
 10
67.19999999999891
 20
-55.01643180800002
 30
0.0
 11
67.19999999999891
 21
-40.0
 31
0.0
  0
LINE
  5
44B
330
1D
100
AcDbEntity
  8
2
100
AcDbLine
 10
67.19999999999891
 20
-53.01643180800002
 30
0.0
 11
63.70000001299891
 21
-53.466431908
 31
0.0
  0
LINE
  5
44C
330
1D
100
AcDbEntity
  8
2
100
AcDbLine
 10
63.70000001299891
 20
-53.466431908
 30
0.0
 11
63.6999999869989
 21
-52.56643190800003
 31
0.0
  0
LINE
  5
44D
330
1D
100
AcDbEntity
  8
2
100
AcDbLine
 10
63.6999999869989
 20
-52.56643190800003
 30
0.0
 11
67.19999999999891
 21
-53.01643180800002
 31
0.0
  0
LINE
  5
44E
330
1D
100
AcDbEntity
  8
2
100
AcDbLine
 10
3.499999999998906
 20
-53.01643361600003
 30
0.0
 11
63.69999999999891
 21
-53.01643190800002
 31
0.0
  0
TEXT
  5
44F
330
1D
100
AcDbEntity
  8
2
100
AcDbText
 10
30.37671795599891
 20
-51.51643285400002
 30
0.0
 40
3.5
  1
67.2
 50
0.000001626
  7
BMG_Text
100
AcDbText
  0
LINE
  5
450
330
1D
100
AcDbEntity
  8
2
100
AcDbLine
 10
-0.0000000000010942
 20
57.38416480999999
 30
0.0
 11
3.499999997998913
 21
57.83416482199999
 31
0.0
  0
LINE
  5
451
330
1D
100
AcDbEntity
  8
2
100
AcDbLine
 10
3.499999997998913
 20
57.83416482199999
 30
0.0
 11
3.500000001998899
 21
56.93416482199999
 31
0.0
  0
LINE
  5
452
330
1D
100
AcDbEntity
  8
2
100
AcDbLine
 10
3.500000001998899
 20
56.93416482199999
 30
0.0
 11
-0.0000000000010942
 21
57.38416480999999
 31
0.0
  0
LINE
  5
453
330
1D
100
AcDbEntity
  8
2
100
AcDbLine
 10
70.98183917899891
 20
59.38416505199999
 30
0.0
 11
70.98183917899891
 21
49.60016322399997
 31
0.0
  0
LINE
  5
454
330
1D
100
AcDbEntity
  8
2
100
AcDbLine
 10
70.98183917899891
 20
57.38416505199999
 30
0.0
 11
67.4818391799989
 21
56.93416503999998
 31
0.0
  0
LINE
  5
455
330
1D
100
AcDbEntity
  8
2
100
AcDbLine
 10
67.4818391799989
 20
56.93416503999998
 30
0.0
 11
67.4818391769989
 21
57.83416503999999
 31
0.0
  0
LINE
  5
456
330
1D
100
AcDbEntity
  8
2
100
AcDbLine
 10
67.4818391769989
 20
57.83416503999999
 30
0.0
 11
70.98183917899891
 21
57.38416505199999
 31
0.0
  0
LINE
  5
457
330
1D
100
AcDbEntity
  8
2
100
AcDbLine
 10
3.499999999998906
 20
57.384164822
 30
0.0
 11
67.48183917899891
 21
57.38416503999997
 31
0.0
  0
TEXT
  5
458
330
1D
100
AcDbEntity
  8
2
100
AcDbText
 10
34.20904379099889
 20
58.88416492699997
 30
0.0
 40
3.5
  1
71
 50
0.000000195
  7
BMG_Text
100
AcDbText
  0
LINE
  5
459
330
1D
100
AcDbEntity
  8
2
100
AcDbLine
 10
84.9971281039989
 20
50.00016385499998
 30
0.0
 11
70.5818391789989
 21
50.00016322399998
 31
0.0
  0
LINE
  5
45A
330
1D
100
AcDbEntity
  8
2
100
AcDbLine
 10
82.9971281039989
 20
50.00016376699998
 30
0.0
 11
83.44712825699892
 21
46.50016378699999
 31
0.0
  0
LINE
  5
45B
330
1D
100
AcDbEntity
  8
2
100
AcDbLine
 10
83.44712825699892
 20
46.50016378699999
 30
0.0
 11
82.54712825699889
 21
46.50016374699999
 31
0.0
  0
LINE
  5
45C
330
1D
100
AcDbEntity
  8
2
100
AcDbLine
 10
82.54712825699889
 20
46.50016374699999
 30
0.0
 11
82.9971281039989
 21
50.00016376699998
 31
0.0
  0
LINE
  5
45D
330
1D
100
AcDbEntity
  8
2
100
AcDbLine
 10
82.99713050799889
 20
-5.000015727000005
 30
0.0
 11
82.9971282569989
 21
46.50016376699998
 31
0.0
  0
TEXT
  5
45E
330
1D
100
AcDbEntity
  8
2
100
AcDbText
 10
81.46067854099888
 20
-4.277479056000004
 30
0.0
 40
3.499999999999998
  1
100
 50
90.00000250400001
  7
BMG_Text
100
AcDbText
  0
CIRCLE
  5
45F
330
1D
100
AcDbEntity
  8
2
100
AcDbCircle
 10
80.2106786389989
 20
-6.527479111000019
 30
0.0
 40
1.25
  0
LINE
  5
460
330
1D
100
AcDbEntity
  8
2
100
AcDbLine
 10
81.46067869399891
 20
-7.777479056000004
 30
0.0
 11
78.9606785849989
 21
-5.277479166000035
 31
0.0
  0
TEXT
  5
461
330
1D
100
AcDbEntity
  8
2
100
AcDbText
 10
81.4606782649989
 20
5.91533525668126
 30
0.0
 40
3.499999999999998
  1
-153
 50
90.00000250400001
  7
BMG_Text
100
AcDbText
  0
LINE
  5
462
330
1D
100
AcDbEntity
  8
1
100
AcDbLine
 10
64.06901586599892
 20
46.73064449399999
 30
0.0
 11
68.71598790699889
 21
49.09839501099998
 31
0.0
  0
LINE
  5
463
330
1D
100
AcDbEntity
  8
1
100
AcDbLine
 10
63.90154080599891
 20
43.53502998199997
 30
0.0
 11
70.03960944697405
 21
39.54965952616487
 31
0.0
  0
LINE
  5
464
330
1D
100
AcDbEntity
  8
1
100
AcDbLine
 10
70.03960944697405
 20
39.54965952616487
 30
0.0
 11
70.04437465237896
 21
39.54965952616487
 31
0.0
  0
LINE
  5
465
330
1D
100
AcDbEntity
  8
3
100
AcDbLine
 10
70.0416853134989
 20
39.60217535542071
 30
0.0
 11
70.5818391789989
 21
49.60016322399997
 31
0.0
  0
LINE
  5
466
330
1D
100
AcDbEntity
  8
3
100
AcDbLine
 10
70.5818391789989
 20
49.60016322399997
 30
0.0
 11
68.71598790699889
 21
49.09839501099998
 31
0.0
  0
LINE
  5
467
330
1D
100
AcDbEntity
  8
NOCUT
100
AcDbLine
 10
31.92738168932314
 20
40.39999999999998
 30
0.0
 11
31.12487113049892
 21
40.39999999999998
 31
0.0
  0
LINE
  5
468
330
1D
100
AcDbEntity
  8
NOCUT
100
AcDbLine
 10
31.92738168932314
 20
40.39999999999998
 30
0.0
 11
35.99999999999889
 21
41.44779090699998
 31
0.0
  0
LINE
  5
469
330
1D
100
AcDbEntity
  8
NOCUT
100
AcDbLine
 10
35.99999999999889
 20
41.44779090699998
 30
0.0
 11
35.99999999999889
 21
45.10135317999999
 31
0.0
  0
LINE
  5
46A
330
1D
100
AcDbEntity
  8
NOCUT
100
AcDbLine
 10
36.9321195579989
 20
46.005
 30
0.0
 11
42.50378309099889
 21
46.005
 31
0.0
  0
LINE
  5
46B
330
1D
100
AcDbEntity
  8
NOCUT
100
AcDbLine
 10
42.50378309099889
 20
46.005
 30
0.0
 11
43.75290738999891
 21
45.79763746199998
 31
0.0
  0
LINE
  5
46C
330
1D
100
AcDbEntity
  8
NOCUT
100
AcDbLine
 10
43.75290738999891
 20
45.79763746199998
 30
0.0
 11
44.8999999999989
 21
46.10499999999999
 31
0.0
  0
LINE
  5
46D
330
1D
100
AcDbEntity
  8
NOCUT
100
AcDbLine
 10
44.8999999999989
 20
46.10499999999999
 30
0.0
 11
51.09999999999891
 21
46.10499999999999
 31
0.0
  0
LINE
  5
46E
330
1D
100
AcDbEntity
  8
NOCUT
100
AcDbLine
 10
51.09999999999891
 20
46.10499999999999
 30
0.0
 11
52.2452890619989
 21
45.79812072099998
 31
0.0
  0
LINE
  5
46F
330
1D
100
AcDbEntity
  8
NOCUT
100
AcDbLine
 10
52.2452890619989
 20
45.79812072099998
 30
0.0
 11
53.49328229499892
 21
46.005
 31
0.0
  0
LINE
  5
470
330
1D
100
AcDbEntity
  8
NOCUT
100
AcDbLine
 10
53.49328229499892
 20
46.005
 30
0.0
 11
59.09999999982603
 21
46.00500000029174
 31
0.0
  0
LINE
  5
471
330
1D
100
AcDbEntity
  8
NOCUT
100
AcDbLine
 10
59.09999999982603
 20
46.00500000029174
 30
0.0
 11
60.21894298399891
 21
47.94306609899999
 31
0.0
  0
LINE
  5
472
330
1D
100
AcDbEntity
  8
NOCUT
100
AcDbLine
 10
60.21894298399891
 20
47.94306609899999
 30
0.0
 11
68.55566093799891
 21
49.41305440499997
 31
0.0
  0
LINE
  5
473
330
1D
100
AcDbEntity
  8
NOCUT
100
AcDbLine
 10
68.55566093799891
 20
49.41305440499997
 30
0.0
 11
68.71598790699889
 21
49.09839501099998
 31
0.0
  0
LINE
  5
474
330
1D
100
AcDbEntity
  8
NOCUT
100
AcDbLine
 10
68.71598790699889
 20
49.09839501099998
 30
0.0
 11
70.5818391789989
 21
49.60016322399997
 31
0.0
  0
LINE
  5
475
330
1D
100
AcDbEntity
  8
NOCUT
100
AcDbLine
 10
70.5818391789989
 20
49.60016322399997
 30
0.0
 11
69.93721858699891
 21
37.505
 31
0.0
  0
LINE
  5
476
330
1D
100
AcDbEntity
  8
NOCUT
100
AcDbLine
 10
69.93721858699891
 20
37.505
 30
0.0
 11
67.19999999999891
 21
37.505
 31
0.0
  0
LINE
  5
477
330
1D
100
AcDbEntity
  8
NOCUT
100
AcDbLine
 10
67.19999999999891
 20
37.505
 30
0.0
 11
67.19999999999891
 21
0.0
 31
0.0
  0
LINE
  5
478
330
1D
100
AcDbEntity
  8
NOCUT
100
AcDbLine
 10
67.19999999999891
 20
0.0
 30
0.0
 11
0.0
 21
0.0
 31
0.0
  0
LINE
  5
479
330
1D
100
AcDbEntity
  8
NOCUT
100
AcDbLine
 10
0.2499999999989058
 20
31.0
 30
0.0
 11
0.2499999999989058
 21
45.0
 31
0.0
  0
LINE
  5
47A
330
1D
100
AcDbEntity
  8
NOCUT
100
AcDbLine
 10
0.2499999999989058
 20
45.0
 30
0.0
 11
29.8923048449989
 21
45.0
 31
0.0
  0
LINE
  5
47B
330
1D
100
AcDbEntity
  8
NOCUT
100
AcDbLine
 10
29.8923048449989
 20
45.0
 30
0.0
 11
31.12487113049892
 21
40.39999999999998
 31
0.0
  0
ARC
  5
47C
330
1D
100
AcDbEntity
  8
NOCUT
100
AcDbCircle
 10
36.90265613057329
 20
45.10282365426573
 30
0.0
 40
0.9026573283135105
100
AcDbArc
 50
88.12948957097935
 51
180.0933377528014
  0
LWPOLYLINE
  5
47D
330
1D
100
AcDbEntity
  8
INFTOTAL
100
AcDbPolyline
 90
        4
 70
     1
 43
0.0
 10
-122.3235932684693
 20
89.50969946559749
 10
-122.3235932684693
 20
-86.09438913415534
 10
144.9807276444735
 20
-86.09438913415534
 10
144.9807276444735
 20
89.50969946559749
  0
LINE
  5
47E
330
1D
100
AcDbEntity
  8
2
100
AcDbLine
 10
0.2499999999989058
 20
45.0
 30
0.0
 11
0.2499999999989058
 21
59.25186015457581
 31
0.0
  0
LINE
  5
47F
330
1D
100
AcDbEntity
  8
3
100
AcDbLine
 10
0.7333197594281273
 20
1.950145523461742
 30
0.0
 11
1.867039569027483
 21
-0.0031881770395046
 31
0.0
  0
LINE
  5
480
330
1D
100
AcDbEntity
  8
3
100
AcDbLine
 10
1.867039569027483
 20
-0.0031881770395046
 30
0.0
 11
0.7496771170151106
 21
-1.937544158485622
 31
0.0
  0
LINE
  5
481
330
1D
100
AcDbEntity
  8
3
100
AcDbLine
 10
0.7777087241353655
 20
4.050551612872766
 30
0.0
 11
63.91522976096292
 21
30.31572996972932
 31
0.0
  0
LINE
  5
482
330
1D
100
AcDbEntity
  8
3
100
AcDbLine
 10
55.97631229885829
 20
32.43954004695621
 30
0.0
 11
0.7506293059641962
 21
9.454201419534826
 31
0.0
  0
LINE
  5
483
330
1D
100
AcDbEntity
  8
4
100
AcDbLine
 10
0.0
 20
0.0
 30
0.0
 11
69.24999999999889
 21
0.0
 31
0.0
  0
LINE
  5
484
330
1D
100
AcDbEntity
  8
SK3
100
AcDbLine
 10
0.750232557993769
 20
9.453866595516331
 30
0.0
 11
-2.73791306773721
 21
8.032345033378533
 31
0.0
  0
LINE
  5
485
330
1D
100
AcDbEntity
  8
SK3
100
AcDbLine
 10
0.7502093382132529
 20
4.039230801416011
 30
0.0
 11
-2.745963659564751
 21
2.772645437434562
 31
0.0
  0
LINE
  5
486
330
1D
100
AcDbEntity
  8
SK3
100
AcDbLine
 10
0.7499603554266088
 20
-1.936808508438418
 30
0.0
 11
-2.751866765035274
 21
-7.324865949252001
 31
0.0
  0
LINE
  5
487
330
1D
100
AcDbEntity
  8
SK3
100
AcDbLine
 10
0.7517583057555868
 20
1.925653502922017
 30
0.0
 11
-0.3788064166135996
 21
3.615056919807415
 31
0.0
  0
LINE
  5
488
330
1D
100
AcDbEntity
  8
SK4
100
AcDbLine
 10
69.24999999999889
 20
0.0
 30
0.0
 11
-45.75000000000109
 21
0.0
 31
0.0
  0
LINE
  5
489
330
1D
100
AcDbEntity
  8
SK1
100
AcDbLine
 10
0.0
 20
-17.80000000000084
 30
0.0
 11
0.0
 21
17.80000000000081
 31
0.0
  0
CENTERLINE
  5
48A
330
1D
100
AcDbEntity
  8
SK4
 92
      272
310
10010000060000000C00000014000000010000000C00000014000000020000003C00000006000000020000008059429C1374E83F00F0943E55021B40000000000000000064C7FF0A00F94D4001FC33B4B4603F4000000000000000000C000000140000000100000054000000200000000200000066B72FB93C11E13F6E1554
310
21FC9F1A4000000000000000008059429C1374E83F00F0943E55021B40000000000000000000000000000000000000000000000000000000000000F03F540000002000000002000000EC118C668B164E40A63284FB4A793F40000000000000000064C7FF0A00F94D4001FC33B4B4603F400000000000000000000000000000
310
00000000000000000000000000000000F03F
100
CFxDbCenterline
 70
     1
 71
     0
 50
0.0
 90
        2
 10
0.7641695072114061
 20
6.752278306808876
 42
0.0
 10
59.94531381119921
 20
31.37775732297087
 42
0.0
 72
     0
 38
0.0
 39
0.0
210
0.0
220
0.0
230
1.0
  0
CENTERLINE
  5
48B
330
1D
100
AcDbEntity
  8
SK4
 92
      272
310
10010000060000000C00000014000000010000000C00000014000000020000003C0000000600000002000000AD2B2776B43448400000000000E041C00000000000000000AD2B2776B434484028927E14F83B414000000000000000000C0000001400000001000000540000002000000002000000AD2B2776B4344840000000
310
00000042C00000000000000000AD2B2776B43448400000000000E041C0000000000000000000000000000000000000000000000000000000000000F03F540000002000000002000000AD2B2776B434484028927E14F85B41400000000000000000AD2B2776B434484028927E14F83B41400000000000000000000000000000
310
00000000000000000000000000000000F03F
100
CFxDbCenterline
 70
     1
 71
     0
 50
0.0
 90
        2
 10
48.4117572489989
 20
-35.75
 42
0.0
 10
48.4117572489989
 20
34.46850830249997
 42
0.0
 72
     0
 38
0.0
 39
0.0
210
0.0
220
0.0
230
1.0
  0
CENTERLINE
  5
48C
330
1D
100
AcDbEntity
  8
4
 92
      272
310
10010000060000000C00000014000000010000000C00000014000000020000003C00000006000000020000008059429C1374E83F00F0943E55021B40000000000000000064C7FF0A00F94D4001FC33B4B4603F4000000000000000000C000000140000000100000054000000200000000200000066B72FB93C11E13F6E1554
310
21FC9F1A4000000000000000008059429C1374E83F00F0943E55021B40000000000000000000000000000000000000000000000000000000000000F03F540000002000000002000000EC118C668B164E40A63284FB4A793F40000000000000000064C7FF0A00F94D4001FC33B4B4603F400000000000000000000000000000
310
00000000000000000000000000000000F03F
100
CFxDbCenterline
 70
     1
 71
     0
 50
0.0
 90
        2
 10
0.7641695072114061
 20
6.752278306808876
 42
0.0
 10
59.94531381119921
 20
31.37775732297087
 42
0.0
 72
     0
 38
0.0
 39
0.0
210
0.0
220
0.0
230
1.0
  0
CENTERLINE
  5
48D
330
1D
100
AcDbEntity
  8
4
 92
      272
310
10010000060000000C00000014000000010000000C00000014000000020000003C0000000600000002000000AD2B2776B43448400000000000E041C00000000000000000AD2B2776B434484028927E14F83B414000000000000000000C0000001400000001000000540000002000000002000000AD2B2776B4344840000000
310
00000042C00000000000000000AD2B2776B43448400000000000E041C0000000000000000000000000000000000000000000000000000000000000F03F540000002000000002000000AD2B2776B434484028927E14F85B41400000000000000000AD2B2776B434484028927E14F83B41400000000000000000000000000000
310
00000000000000000000000000000000F03F
100
CFxDbCenterline
 70
     1
 71
     0
 50
0.0
 90
        2
 10
48.4117572489989
 20
-35.75
 42
0.0
 10
48.4117572489989
 20
34.46850830249997
 42
0.0
 72
     0
 38
0.0
 39
0.0
210
0.0
220
0.0
230
1.0
  0
HATCH
  5
48E
330
1D
100
AcDbEntity
  8
7
100
AcDbHatch
 10
0.0
 20
0.0
 30
0.0
210
0.0
220
0.0
230
1.0
  2
ANSI31
 70
     0
 71
     1
 91
        2
 92
        7
 72
     1
 73
     1
 93
        6
 10
70.47819162192528
 20
39.97952098062709
 42
0.0
 10
70.98129099292528
 20
49.57922884162711
 42
0.5773502689263057
 10
70.40024297907703
 20
49.95656583375648
 42
0.0
 10
61.83510241707705
 20
45.5924087395065
 42
0.577350269153197
 10
61.7988430029944
 20
44.90053790261638
 42
0.0
 10
69.8608841939944
 20
39.66498713586637
 42
0.5773502693424618
 97
        6
330
493
330
492
330
491
330
490
330
48F
330
494
 92
       22
 72
     1
 73
     1
 93
        2
 10
65.65361498399892
 20
44.95499999999998
 42
1.0
 10
69.10361498399891
 20
44.95499999999998
 42
1.0
 97
        1
330
495
 75
     0
 76
     1
 52
0.0
 41
1.0
 77
     0
 78
     1
 53
45.0
 43
-31.51103737622135
 44
-20.96348943015678
 45
-0.0883883476483184
 46
0.0883883476483184
 79
     0
 47
0.0
 98
        2
 10
70.59360790171954
 20
43.5326179965015
 10
70.59360790171954
 20
43.5326179965015
1001
ACAD
1010
0.0
1020
0.0
1030
0.0
  0
LINE
  5
48F
102
{ACAD_REACTORS
330
48E
102
}
330
1D
100
AcDbEntity
  8
CUT
100
AcDbLine
 10
61.79884300299889
 20
44.900537902
 30
0.0
 11
69.86088419399888
 21
39.66498713599998
 31
0.0
  0
ARC
  5
490
102
{ACAD_REACTORS
330
48E
102
}
330
1D
100
AcDbEntity
  8
CUT
100
AcDbCircle
 10
62.01669861699892
 20
45.23600612999999
 30
0.0
 40
0.4
100
AcDbArc
 50
117.0000000000025
 51
236.9999999999969
  0
LINE
  5
491
102
{ACAD_REACTORS
330
48E
102
}
330
1D
100
AcDbEntity
  8
CUT
100
AcDbLine
 10
70.4002429789989
 20
49.95656583399997
 30
0.0
 11
61.83510241699892
 21
45.59240873899998
 31
0.0
  0
ARC
  5
492
102
{ACAD_REACTORS
330
48E
102
}
330
1D
100
AcDbEntity
  8
CUT
100
AcDbCircle
 10
70.5818391789989
 20
49.60016322399997
 30
0.0
 40
0.4
100
AcDbArc
 50
357.0000000000026
 51
117.0000000000025
  0
LINE
  5
493
102
{ACAD_REACTORS
330
48E
102
}
330
1D
100
AcDbEntity
  8
CUT
100
AcDbLine
 10
70.47819162199889
 20
39.97952098099998
 30
0.0
 11
70.98129099299891
 21
49.57922884199999
 31
0.0
  0
ARC
  5
494
102
{ACAD_REACTORS
330
48E
102
}
330
1D
100
AcDbEntity
  8
CUT
100
AcDbCircle
 10
70.07873980799891
 20
40.00045536299999
 30
0.0
 40
0.4
100
AcDbArc
 50
236.9999999999969
 51
356.9999999999986
  0
CIRCLE
  5
495
102
{ACAD_REACTORS
330
48E
102
}
330
1D
100
AcDbEntity
  8
1
100
AcDbCircle
 10
67.37861498399892
 20
44.95499999999998
 30
0.0
 40
1.725
  0
LINE
  5
496
330
1D
100
AcDbEntity
  8
NOCUT
100
AcDbLine
 10
0.2499999999989058
 20
31.0
 30
0.0
 11
-0.0000000000010942
 21
31.0
 31
0.0
  0
LINE
  5
497
330
1D
100
AcDbEntity
  8
NOCUT
100
AcDbLine
 10
-0.0000000000010942
 20
31.0
 30
0.0
 11
0.0
 21
0.0
 31
0.0
  0
ENDSEC
  0
SECTION
  2
OBJECTS
  0
DICTIONARY
  5
C
330
0
100
AcDbDictionary
281
     1
  3
ACAD_DETAILVIEWSTYLE
350
1A5
  3
ACAD_GROUP
350
D
  3
ACAD_LAYOUT
350
1A
  3
ACAD_MLINESTYLE
350
17
  3
ACAD_PLOTSETTINGS
350
19
  3
ACAD_PLOTSTYLENAME
350
E
  3
ACAD_SCALELIST
350
111
  3
ACAD_SECTIONVIEWSTYLE
350
1A6
  3
AcDbVariableDictionary
350
153
  3
APPDATA
350
1A1
  3
DWGPROPS
350
49D
  0
DICTIONARY
  5
1A7
330
2
100
AcDbDictionary
280
     1
281
     1
  3
ACAD_LAYERSTATES
360
1A8
  0
DICTIONARY
  5
1A5
102
{ACAD_REACTORS
330
C
102
}
330
C
100
AcDbDictionary
281
     1
  0
DICTIONARY
  5
D
102
{ACAD_REACTORS
330
C
102
}
330
C
100
AcDbDictionary
281
     1
  0
DICTIONARY
  5
1A
102
{ACAD_REACTORS
330
C
102
}
330
C
100
AcDbDictionary
281
     1
  3
Layout1
350
1C
  3
Model
350
1E
  0
DICTIONARY
  5
17
102
{ACAD_REACTORS
330
C
102
}
330
C
100
AcDbDictionary
281
     1
  3
Standard
350
18
  0
DICTIONARY
  5
19
102
{ACAD_REACTORS
330
C
102
}
330
C
100
AcDbDictionary
281
     1
  0
ACDBDICTIONARYWDFLT
  5
E
102
{ACAD_REACTORS
330
C
102
}
330
C
100
AcDbDictionary
281
     1
  3
Normal
350
F
100
AcDbDictionaryWithDefault
340
F
  0
DICTIONARY
  5
111
102
{ACAD_REACTORS
330
C
102
}
330
C
100
AcDbDictionary
281
     1
  3
A0
350
112
  3
A1
350
113
  3
A2
350
114
  3
A3
350
115
  3
A4
350
116
  3
A5
350
117
  3
A6
350
118
  3
A7
350
119
  3
A8
350
11A
  3
A9
350
11B
  3
B0
350
11C
  3
B1
350
11D
  3
B2
350
11E
  3
B3
350
11F
  3
B4
350
120
  3
B5
350
121
  3
B6
350
122
  3
B7
350
123
  3
B8
350
124
  3
B9
350
125
  3
C0
350
126
  3
C1
350
127
  3
C2
350
128
  3
C3
350
129
  3
C4
350
12A
  3
C5
350
12B
  3
C6
350
12C
  3
C7
350
12D
  3
C8
350
12E
  3
C9
350
12F
  3
D0
350
130
  3
D1
350
131
  3
D2
350
132
  0
DICTIONARY
  5
1A6
102
{ACAD_REACTORS
330
C
102
}
330
C
100
AcDbDictionary
281
     1
  0
DICTIONARY
  5
153
102
{ACAD_REACTORS
330
C
102
}
330
C
100
AcDbDictionary
281
     1
  3
DIMASSOC
350
157
  3
HIDETEXT
350
158
  0
DICTIONARY
  5
1A1
102
{ACAD_REACTORS
330
C
102
}
330
C
100
AcDbDictionary
281
     1
  0
XRECORD
  5
49D
102
{ACAD_REACTORS
330
C
102
}
330
C
100
AcDbXrecord
280
     1
  1
DWGPROPS COOKIE
  2

  3

  4

  6

  7

  8
matthias.ochs
  9

300
=
301
=
302
=
303
=
304
=
305
=
306
=
307
=
308
=
309
=
 40
0.0
 41
2458327.465981725
 42
2458589.508157616
  1

 90
        0
  0
DICTIONARY
  5
1A8
102
{ACAD_REACTORS
330
1A7
102
}
330
1A7
100
AcDbDictionary
281
     1
  0
LAYOUT
  5
1C
102
{ACAD_REACTORS
330
1A
102
}
330
1A
100
AcDbPlotSettings
  1

  2
none_device
  4

  6

 40
0.0
 41
0.0
 42
0.0
 43
0.0
 44
0.0
 45
0.0
 46
0.0
 47
0.0
 48
0.0
 49
0.0
140
0.0
141
0.0
142
1.0
143
1.0
 70
   688
 72
     0
 73
     0
 74
     5
  7

 75
    16
147
1.0
148
0.0
149
0.0
100
AcDbLayout
  1
Layout1
 70
     1
 71
     1
 10
0.0
 20
0.0
 11
12.0
 21
9.0
 12
0.0
 22
0.0
 32
0.0
 14
1.000000000000000E+20
 24
1.000000000000000E+20
 34
1.000000000000000E+20
 15
-1.000000000000000E+20
 25
-1.000000000000000E+20
 35
-1.000000000000000E+20
146
0.0
 13
0.0
 23
0.0
 33
0.0
 16
1.0
 26
0.0
 36
0.0
 17
0.0
 27
1.0
 37
0.0
 76
     0
330
1B
  0
LAYOUT
  5
1E
102
{ACAD_REACTORS
330
1A
102
}
330
1A
100
AcDbPlotSettings
  1

  2
none_device
  4

  6

 40
0.0
 41
0.0
 42
0.0
 43
0.0
 44
0.0
 45
0.0
 46
0.0
 47
0.0
 48
0.0
 49
0.0
140
0.0
141
0.0
142
1.0
143
1.0
 70
  1712
 72
     0
 73
     0
 74
     0
  7

 75
     0
147
1.0
148
0.0
149
0.0
100
AcDbLayout
  1
Model
 70
     1
 71
     0
 10
0.0
 20
0.0
 11
12.0
 21
9.0
 12
0.0
 22
0.0
 32
0.0
 14
-122.3235932684693
 24
-86.09438913415534
 34
0.0
 15
144.9807276444735
 25
89.50969946559749
 35
0.0
146
0.0
 13
0.0
 23
0.0
 33
0.0
 16
1.0
 26
0.0
 36
0.0
 17
0.0
 27
1.0
 37
0.0
 76
     0
330
1D
331
10B
  0
MLINESTYLE
  5
18
102
{ACAD_REACTORS
330
17
102
}
330
17
100
AcDbMlineStyle
  2
Standard
 70
     0
  3

 62
   256
 51
90.0
 52
90.0
 71
     2
 49
0.5
 62
   256
  6
BYLAYER
 49
-0.5
 62
   256
  6
BYLAYER
  0
ACDBPLACEHOLDER
  5
F
102
{ACAD_REACTORS
330
E
102
}
330
E
  0
SCALE
  5
112
102
{ACAD_REACTORS
330
111
102
}
330
111
100
AcDbScale
 70
     0
300
1:1
140
1.0
141
1.0
290
     1
  0
SCALE
  5
113
102
{ACAD_REACTORS
330
111
102
}
330
111
100
AcDbScale
 70
     0
300
1:2
140
1.0
141
2.0
290
     0
  0
SCALE
  5
114
102
{ACAD_REACTORS
330
111
102
}
330
111
100
AcDbScale
 70
     0
300
1:4
140
1.0
141
4.0
290
     0
  0
SCALE
  5
115
102
{ACAD_REACTORS
330
111
102
}
330
111
100
AcDbScale
 70
     0
300
1:5
140
1.0
141
5.0
290
     0
  0
SCALE
  5
116
102
{ACAD_REACTORS
330
111
102
}
330
111
100
AcDbScale
 70
     0
300
1:8
140
1.0
141
8.0
290
     0
  0
SCALE
  5
117
102
{ACAD_REACTORS
330
111
102
}
330
111
100
AcDbScale
 70
     0
300
1:10
140
1.0
141
10.0
290
     0
  0
SCALE
  5
118
102
{ACAD_REACTORS
330
111
102
}
330
111
100
AcDbScale
 70
     0
300
1:16
140
1.0
141
16.0
290
     0
  0
SCALE
  5
119
102
{ACAD_REACTORS
330
111
102
}
330
111
100
AcDbScale
 70
     0
300
1:20
140
1.0
141
20.0
290
     0
  0
SCALE
  5
11A
102
{ACAD_REACTORS
330
111
102
}
330
111
100
AcDbScale
 70
     0
300
1:30
140
1.0
141
30.0
290
     0
  0
SCALE
  5
11B
102
{ACAD_REACTORS
330
111
102
}
330
111
100
AcDbScale
 70
     0
300
1:40
140
1.0
141
40.0
290
     0
  0
SCALE
  5
11C
102
{ACAD_REACTORS
330
111
102
}
330
111
100
AcDbScale
 70
     0
300
1:50
140
1.0
141
50.0
290
     0
  0
SCALE
  5
11D
102
{ACAD_REACTORS
330
111
102
}
330
111
100
AcDbScale
 70
     0
300
1:100
140
1.0
141
100.0
290
     0
  0
SCALE
  5
11E
102
{ACAD_REACTORS
330
111
102
}
330
111
100
AcDbScale
 70
     0
300
2:1
140
2.0
141
1.0
290
     0
  0
SCALE
  5
11F
102
{ACAD_REACTORS
330
111
102
}
330
111
100
AcDbScale
 70
     0
300
4:1
140
4.0
141
1.0
290
     0
  0
SCALE
  5
120
102
{ACAD_REACTORS
330
111
102
}
330
111
100
AcDbScale
 70
     0
300
8:1
140
8.0
141
1.0
290
     0
  0
SCALE
  5
121
102
{ACAD_REACTORS
330
111
102
}
330
111
100
AcDbScale
 70
     0
300
10:1
140
10.0
141
1.0
290
     0
  0
SCALE
  5
122
102
{ACAD_REACTORS
330
111
102
}
330
111
100
AcDbScale
 70
     0
300
100:1
140
100.0
141
1.0
290
     0
  0
SCALE
  5
123
102
{ACAD_REACTORS
330
111
102
}
330
111
100
AcDbScale
 70
     0
300
1/128" = 1'-0"
140
0.0078125
141
12.0
290
     0
  0
SCALE
  5
124
102
{ACAD_REACTORS
330
111
102
}
330
111
100
AcDbScale
 70
     0
300
1/64" = 1'-0"
140
0.015625
141
12.0
290
     0
  0
SCALE
  5
125
102
{ACAD_REACTORS
330
111
102
}
330
111
100
AcDbScale
 70
     0
300
1/32" = 1'-0"
140
0.03125
141
12.0
290
     0
  0
SCALE
  5
126
102
{ACAD_REACTORS
330
111
102
}
330
111
100
AcDbScale
 70
     0
300
1/16" = 1'-0"
140
0.0625
141
12.0
290
     0
  0
SCALE
  5
127
102
{ACAD_REACTORS
330
111
102
}
330
111
100
AcDbScale
 70
     0
300
3/32" = 1'-0"
140
0.09375
141
12.0
290
     0
  0
SCALE
  5
128
102
{ACAD_REACTORS
330
111
102
}
330
111
100
AcDbScale
 70
     0
300
1/8" = 1'-0"
140
0.125
141
12.0
290
     0
  0
SCALE
  5
129
102
{ACAD_REACTORS
330
111
102
}
330
111
100
AcDbScale
 70
     0
300
3/16" = 1'-0"
140
0.1875
141
12.0
290
     0
  0
SCALE
  5
12A
102
{ACAD_REACTORS
330
111
102
}
330
111
100
AcDbScale
 70
     0
300
1/4" = 1'-0"
140
0.25
141
12.0
290
     0
  0
SCALE
  5
12B
102
{ACAD_REACTORS
330
111
102
}
330
111
100
AcDbScale
 70
     0
300
3/8" = 1'-0"
140
0.375
141
12.0
290
     0
  0
SCALE
  5
12C
102
{ACAD_REACTORS
330
111
102
}
330
111
100
AcDbScale
 70
     0
300
1/2" = 1'-0"
140
0.5
141
12.0
290
     0
  0
SCALE
  5
12D
102
{ACAD_REACTORS
330
111
102
}
330
111
100
AcDbScale
 70
     0
300
3/4" = 1'-0"
140
0.75
141
12.0
290
     0
  0
SCALE
  5
12E
102
{ACAD_REACTORS
330
111
102
}
330
111
100
AcDbScale
 70
     0
300
1" = 1'-0"
140
1.0
141
12.0
290
     0
  0
SCALE
  5
12F
102
{ACAD_REACTORS
330
111
102
}
330
111
100
AcDbScale
 70
     0
300
1-1/2" = 1'-0"
140
1.5
141
12.0
290
     0
  0
SCALE
  5
130
102
{ACAD_REACTORS
330
111
102
}
330
111
100
AcDbScale
 70
     0
300
3" = 1'-0"
140
3.0
141
12.0
290
     0
  0
SCALE
  5
131
102
{ACAD_REACTORS
330
111
102
}
330
111
100
AcDbScale
 70
     0
300
6" = 1'-0"
140
6.0
141
12.0
290
     0
  0
SCALE
  5
132
102
{ACAD_REACTORS
330
111
102
}
330
111
100
AcDbScale
 70
     0
300
1'-0" = 1'-0"
140
12.0
141
12.0
290
     0
  0
DICTIONARYVAR
  5
157
102
{ACAD_REACTORS
330
153
102
}
330
153
100
DictionaryVariables
280
     0
  1
2
  0
DICTIONARYVAR
  5
158
102
{ACAD_REACTORS
330
153
102
}
330
153
100
DictionaryVariables
280
     0
  1
1
  0
ENDSEC
  0
EOF
