  0
SECTION
  2
HEADER
  9
$ACADVER
  1
AC1015
  9
$ACADMAINTVER
 70
     6
  9
$DWGCODEPAGE
  3
ANSI_1252
  9
$INSBASE
 10
0.0
 20
0.0
 30
0.0
  9
$EXTMIN
 10
-80.72765243097223
 20
-56.70685228075713
 30
0.0
  9
$EXTMAX
 10
104.1281357203787
 20
78.96494082261235
 30
0.0
  9
$LIMMIN
 10
-71.313505867
 20
-45.010000841
  9
$LIMMAX
 10
94.313505592
 20
58.010000287
  9
$ORTHOMODE
 70
     0
  9
$REGENMODE
 70
     1
  9
$FILLMODE
 70
     1
  9
$QTEXTMODE
 70
     0
  9
$MIRRTEXT
 70
     1
  9
$LTSCALE
 40
1.0
  9
$ATTMODE
 70
     1
  9
$TEXTSIZE
 40
0.2
  9
$TRACEWID
 40
0.05
  9
$TEXTSTYLE
  7
Standard
  9
$CLAYER
  8
1
  9
$CELTYPE
  6
ByLayer
  9
$CECOLOR
 62
   256
  9
$CELTSCALE
 40
1.0
  9
$DISPSILH
 70
     0
  9
$DIMSCALE
 40
1.0
  9
$DIMASZ
 40
0.18
  9
$DIMEXO
 40
0.0625
  9
$DIMDLI
 40
0.38
  9
$DIMRND
 40
0.0
  9
$DIMDLE
 40
0.0
  9
$DIMEXE
 40
0.18
  9
$DIMTP
 40
0.0
  9
$DIMTM
 40
0.0
  9
$DIMTXT
 40
0.18
  9
$DIMCEN
 40
0.09
  9
$DIMTSZ
 40
0.0
  9
$DIMTOL
 70
     0
  9
$DIMLIM
 70
     0
  9
$DIMTIH
 70
     1
  9
$DIMTOH
 70
     1
  9
$DIMSE1
 70
     0
  9
$DIMSE2
 70
     0
  9
$DIMTAD
 70
     0
  9
$DIMZIN
 70
     0
  9
$DIMBLK
  1

  9
$DIMASO
 70
     1
  9
$DIMSHO
 70
     1
  9
$DIMPOST
  1

  9
$DIMAPOST
  1

  9
$DIMALT
 70
     0
  9
$DIMALTD
 70
     2
  9
$DIMALTF
 40
25.4
  9
$DIMLFAC
 40
1.0
  9
$DIMTOFL
 70
     0
  9
$DIMTVP
 40
0.0
  9
$DIMTIX
 70
     0
  9
$DIMSOXD
 70
     0
  9
$DIMSAH
 70
     0
  9
$DIMBLK1
  1

  9
$DIMBLK2
  1

  9
$DIMSTYLE
  2
Standard
  9
$DIMCLRD
 70
     0
  9
$DIMCLRE
 70
     0
  9
$DIMCLRT
 70
     0
  9
$DIMTFAC
 40
1.0
  9
$DIMGAP
 40
0.09
  9
$DIMJUST
 70
     0
  9
$DIMSD1
 70
     0
  9
$DIMSD2
 70
     0
  9
$DIMTOLJ
 70
     1
  9
$DIMTZIN
 70
     0
  9
$DIMALTZ
 70
     0
  9
$DIMALTTZ
 70
     0
  9
$DIMUPT
 70
     0
  9
$DIMDEC
 70
     4
  9
$DIMTDEC
 70
     4
  9
$DIMALTU
 70
     2
  9
$DIMALTTD
 70
     2
  9
$DIMTXSTY
  7
Standard
  9
$DIMAUNIT
 70
     0
  9
$DIMADEC
 70
     0
  9
$DIMALTRND
 40
0.0
  9
$DIMAZIN
 70
     0
  9
$DIMDSEP
 70
    46
  9
$DIMATFIT
 70
     3
  9
$DIMFRAC
 70
     0
  9
$DIMLDRBLK
  1

  9
$DIMLUNIT
 70
     2
  9
$DIMLWD
 70
    -2
  9
$DIMLWE
 70
    -2
  9
$DIMTMOVE
 70
     2
  9
$LUNITS
 70
     2
  9
$LUPREC
 70
     4
  9
$SKETCHINC
 40
0.1
  9
$FILLETRAD
 40
0.5
  9
$AUNITS
 70
     2
  9
$AUPREC
 70
     0
  9
$MENU
  1
.
  9
$ELEVATION
 40
0.0
  9
$PELEVATION
 40
0.0
  9
$THICKNESS
 40
0.0
  9
$LIMCHECK
 70
     0
  9
$CHAMFERA
 40
0.5
  9
$CHAMFERB
 40
0.5
  9
$CHAMFERC
 40
1.0
  9
$CHAMFERD
 40
0.0
  9
$SKPOLY
 70
     0
  9
$TDCREATE
 40
2458327.549314653
  9
$TDUCREATE
 40
2458327.46598132
  9
$TDUPDATE
 40
2458589.591328218
  9
$TDUUPDATE
 40
2458589.507994884
  9
$TDINDWG
 40
0.0199555903
  9
$TDUSRTIMER
 40
0.0001339699
  9
$USRTIMER
 70
     1
  9
$ANGBASE
 50
0.0
  9
$ANGDIR
 70
     0
  9
$PDMODE
 70
     0
  9
$PDSIZE
 40
0.0
  9
$PLINEWID
 40
0.0
  9
$SPLFRAME
 70
     0
  9
$SPLINETYPE
 70
     6
  9
$SPLINESEGS
 70
     8
  9
$HANDSEED
  5
2E6
  9
$SURFTAB1
 70
     6
  9
$SURFTAB2
 70
     6
  9
$SURFTYPE
 70
     6
  9
$SURFU
 70
     6
  9
$SURFV
 70
     6
  9
$UCSBASE
  2

  9
$UCSNAME
  2

  9
$UCSORG
 10
0.0
 20
0.0
 30
0.0
  9
$UCSXDIR
 10
1.0
 20
0.0
 30
0.0
  9
$UCSYDIR
 10
0.0
 20
1.0
 30
0.0
  9
$UCSORTHOREF
  2

  9
$UCSORTHOVIEW
 70
     0
  9
$UCSORGTOP
 10
0.0
 20
0.0
 30
0.0
  9
$UCSORGBOTTOM
 10
0.0
 20
0.0
 30
0.0
  9
$UCSORGLEFT
 10
0.0
 20
0.0
 30
0.0
  9
$UCSORGRIGHT
 10
0.0
 20
0.0
 30
0.0
  9
$UCSORGFRONT
 10
0.0
 20
0.0
 30
0.0
  9
$UCSORGBACK
 10
0.0
 20
0.0
 30
0.0
  9
$PUCSBASE
  2

  9
$PUCSNAME
  2

  9
$PUCSORG
 10
0.0
 20
0.0
 30
0.0
  9
$PUCSXDIR
 10
1.0
 20
0.0
 30
0.0
  9
$PUCSYDIR
 10
0.0
 20
1.0
 30
0.0
  9
$PUCSORTHOREF
  2

  9
$PUCSORTHOVIEW
 70
     0
  9
$PUCSORGTOP
 10
0.0
 20
0.0
 30
0.0
  9
$PUCSORGBOTTOM
 10
0.0
 20
0.0
 30
0.0
  9
$PUCSORGLEFT
 10
0.0
 20
0.0
 30
0.0
  9
$PUCSORGRIGHT
 10
0.0
 20
0.0
 30
0.0
  9
$PUCSORGFRONT
 10
0.0
 20
0.0
 30
0.0
  9
$PUCSORGBACK
 10
0.0
 20
0.0
 30
0.0
  9
$USERI1
 70
     0
  9
$USERI2
 70
     0
  9
$USERI3
 70
     0
  9
$USERI4
 70
     0
  9
$USERI5
 70
     0
  9
$USERR1
 40
0.0
  9
$USERR2
 40
0.0
  9
$USERR3
 40
0.0
  9
$USERR4
 40
0.0
  9
$USERR5
 40
0.0
  9
$WORLDVIEW
 70
     1
  9
$SHADEDGE
 70
     3
  9
$SHADEDIF
 70
    70
  9
$TILEMODE
 70
     1
  9
$MAXACTVP
 70
    64
  9
$PINSBASE
 10
0.0
 20
0.0
 30
0.0
  9
$PLIMCHECK
 70
     0
  9
$PEXTMIN
 10
1.000000000000000E+20
 20
1.000000000000000E+20
 30
1.000000000000000E+20
  9
$PEXTMAX
 10
-1.000000000000000E+20
 20
-1.000000000000000E+20
 30
-1.000000000000000E+20
  9
$PLIMMIN
 10
0.0
 20
0.0
  9
$PLIMMAX
 10
0.0
 20
0.0
  9
$UNITMODE
 70
     0
  9
$VISRETAIN
 70
     1
  9
$PLINEGEN
 70
     0
  9
$PSLTSCALE
 70
     1
  9
$TREEDEPTH
 70
  3020
  9
$CMLSTYLE
  2
Standard
  9
$CMLJUST
 70
     0
  9
$CMLSCALE
 40
1.0
  9
$PROXYGRAPHICS
 70
     1
  9
$MEASUREMENT
 70
     0
  9
$CELWEIGHT
370
    -1
  9
$ENDCAPS
280
     0
  9
$JOINSTYLE
280
     0
  9
$LWDISPLAY
290
     0
  9
$INSUNITS
 70
     0
  9
$HYPERLINKBASE
  1

  9
$STYLESHEET
  1

  9
$XEDIT
290
     1
  9
$CEPSNTYPE
380
     0
  9
$PSTYLEMODE
290
     1
  9
$FINGERPRINTGUID
  2
{3E6229A3-C202-4341-A52D-8CF8185C8144}
  9
$VERSIONGUID
  2
{FAEB1C32-E019-11D5-929B-00C0DF256EC4}
  9
$EXTNAMES
290
     1
  9
$PSVPSCALE
 40
0.0
  9
$OLESTARTUP
290
     0
  0
ENDSEC
  0
SECTION
  2
CLASSES
  0
CLASS
  1
ACDBDICTIONARYWDFLT
  2
AcDbDictionaryWithDefault
  3
ObjectDBX Classes
 90
        0
280
     0
281
     0
  0
CLASS
  1
SCALE
  2
AcDbScale
  3
ObjectDBX Classes
 90
     1153
280
     0
281
     0
  0
CLASS
  1
VISUALSTYLE
  2
AcDbVisualStyle
  3
ObjectDBX Classes
 90
     4095
280
     0
281
     0
  0
CLASS
  1
MATERIAL
  2
AcDbMaterial
  3
ObjectDBX Classes
 90
     1153
280
     0
281
     0
  0
CLASS
  1
DICTIONARYVAR
  2
AcDbDictionaryVar
  3
ObjectDBX Classes
 90
        0
280
     0
281
     0
  0
CLASS
  1
ACDBPLACEHOLDER
  2
AcDbPlaceHolder
  3
ObjectDBX Classes
 90
        0
280
     0
281
     0
  0
CLASS
  1
LAYOUT
  2
AcDbLayout
  3
ObjectDBX Classes
 90
        0
280
     0
281
     0
  0
CLASS
  1
TABLESTYLE
  2
AcDbTableStyle
  3
ObjectDBX Classes
 90
     4095
280
     0
281
     0
  0
CLASS
  1
MLEADERSTYLE
  2
AcDbMLeaderStyle
  3
ACDB_MLEADERSTYLE_CLASS
 90
     4095
280
     0
281
     0
  0
CLASS
  1
SUN
  2
AcDbSun
  3
SCENEOE
 90
     1153
280
     0
281
     0
  0
CLASS
  1
SORTENTSTABLE
  2
AcDbSortentsTable
  3
ObjectDBX Classes
 90
        0
280
     0
281
     0
  0
CLASS
  1
CELLSTYLEMAP
  2
AcDbCellStyleMap
  3
ObjectDBX Classes
 90
     1152
280
     0
281
     0
  0
ENDSEC
  0
SECTION
  2
TABLES
  0
TABLE
  2
VPORT
  5
8
330
0
100
AcDbSymbolTable
 70
     1
  0
VPORT
  5
FB
330
8
100
AcDbSymbolTableRecord
100
AcDbViewportTableRecord
  2
*Active
 70
     0
 10
0.0
 20
0.0
 11
1.0
 21
1.0
 12
25.9166743645178
 22
-2.734623799252248
 13
0.0
 23
0.0
 14
0.5
 24
0.5
 15
0.5
 25
0.5
 16
0.0
 26
0.0
 36
1.0
 17
0.0
 27
0.0
 37
0.0
 40
274.4324361372821
 41
1.70021645021645
 42
50.0
 43
0.0
 44
0.0
 50
0.0
 51
0.0
 71
    16
 72
   100
 73
     1
 74
     3
 75
     0
 76
     0
 77
     0
 78
     0
281
     0
 65
     1
110
0.0
120
0.0
130
0.0
111
1.0
121
0.0
131
0.0
112
0.0
122
1.0
132
0.0
 79
     0
146
0.0
  0
ENDTAB
  0
TABLE
  2
LTYPE
  5
5
330
0
100
AcDbSymbolTable
 70
     8
  0
LTYPE
  5
14
330
5
100
AcDbSymbolTableRecord
100
AcDbLinetypeTableRecord
  2
ByBlock
 70
     0
  3

 72
    65
 73
     0
 40
0.0
  0
LTYPE
  5
15
330
5
100
AcDbSymbolTableRecord
100
AcDbLinetypeTableRecord
  2
ByLayer
 70
     0
  3

 72
    65
 73
     0
 40
0.0
  0
LTYPE
  5
16
330
5
100
AcDbSymbolTableRecord
100
AcDbLinetypeTableRecord
  2
Continuous
 70
     0
  3
Solid line
 72
    65
 73
     0
 40
0.0
  0
LTYPE
  5
20
330
5
100
AcDbSymbolTableRecord
100
AcDbLinetypeTableRecord
  2
PUNKT
 70
     0
  3
..............
 72
    65
 73
     2
 40
1.5
 49
0.7
 74
     0
 49
-0.8
 74
     0
  0
LTYPE
  5
21
330
5
100
AcDbSymbolTableRecord
100
AcDbLinetypeTableRecord
  2
GESTRICHELT
 70
     0
  3
-- -- -- -- --
 72
    65
 73
     7
 40
2.8
 49
0.9
 74
     0
 49
0.0
 74
     0
 49
0.9
 74
     0
 49
0.0
 74
     0
 49
0.2
 74
     0
 49
0.0
 74
     0
 49
-0.8
 74
     0
  0
LTYPE
  5
22
330
5
100
AcDbSymbolTableRecord
100
AcDbLinetypeTableRecord
  2
STRICHPUNKT
 70
     0
  3
--.--.--.--.--
 72
    65
 73
     4
 40
8.8
 49
5.5
 74
     0
 49
-1.3
 74
     0
 49
0.7
 74
     0
 49
-1.3
 74
     0
  0
LTYPE
  5
25
330
5
100
AcDbSymbolTableRecord
100
AcDbLinetypeTableRecord
  2
PHANTOM
 70
     0
  3
--..--..--..--
 72
    65
 73
     6
 40
14.2
 49
7.0
 74
     0
 49
-1.8
 74
     0
 49
0.9
 74
     0
 49
-1.8
 74
     0
 49
0.9
 74
     0
 49
-1.8
 74
     0
  0
LTYPE
  5
173
330
5
100
AcDbSymbolTableRecord
100
AcDbLinetypeTableRecord
  2
DASH
 70
     0
  3
DASH _ _ _ _ _
 72
    65
 73
     2
 40
0.75
 49
0.4
 74
     0
 49
-0.35
 74
     0
  0
LTYPE
  5
174
330
5
100
AcDbSymbolTableRecord
100
AcDbLinetypeTableRecord
  2
LONGDASH_DASH
 70
     0
  3
LONGDASH_DASH __ . __ . __
 72
    65
 73
     4
 40
0.85
 49
0.4
 74
     0
 49
-0.2
 74
     0
 49
0.05
 74
     0
 49
-0.2
 74
     0
  0
LTYPE
  5
175
330
5
100
AcDbSymbolTableRecord
100
AcDbLinetypeTableRecord
  2
LONGDASH_DASH_DASH
 70
     0
  3
LONGDASH_DASH_DASH __ . . __ . . __
 72
    65
 73
     6
 40
1.1
 49
0.4
 74
     0
 49
-0.2
 74
     0
 49
0.05
 74
     0
 49
-0.2
 74
     0
 49
0.05
 74
     0
 49
-0.2
 74
     0
  0
ENDTAB
  0
TABLE
  2
LAYER
  5
2
102
{ACAD_XDICTIONARY
360
192
102
}
330
0
100
AcDbSymbolTable
 70
    16
  0
LAYER
  5
13D
330
2
100
AcDbSymbolTableRecord
100
AcDbLayerTableRecord
  2
200
 70
     0
 62
     2
  6
Continuous
370
    50
390
F
  0
LAYER
  5
176
330
2
100
AcDbSymbolTableRecord
100
AcDbLayerTableRecord
  2
0
 70
     0
 62
     1
  6
Continuous
370
    -3
390
F
  0
LAYER
  5
177
330
2
100
AcDbSymbolTableRecord
100
AcDbLayerTableRecord
  2
1
 70
     0
 62
     4
  6
Continuous
370
    50
390
F
  0
LAYER
  5
178
330
2
100
AcDbSymbolTableRecord
100
AcDbLayerTableRecord
  2
2
 70
     0
 62
     7
  6
Continuous
370
    25
390
F
  0
LAYER
  5
179
330
2
100
AcDbSymbolTableRecord
100
AcDbLayerTableRecord
  2
3
 70
     0
 62
     1
  6
DASH
370
    35
390
F
  0
LAYER
  5
17A
330
2
100
AcDbSymbolTableRecord
100
AcDbLayerTableRecord
  2
4
 70
     0
 62
     2
  6
LONGDASH_DASH
370
    25
390
F
  0
LAYER
  5
17B
330
2
100
AcDbSymbolTableRecord
100
AcDbLayerTableRecord
  2
6
 70
     0
 62
     5
  6
Continuous
370
    -3
390
F
  0
LAYER
  5
17C
330
2
100
AcDbSymbolTableRecord
100
AcDbLayerTableRecord
  2
CUT
 70
     0
 62
     1
  6
Continuous
370
    25
390
F
  0
LAYER
  5
17D
330
2
100
AcDbSymbolTableRecord
100
AcDbLayerTableRecord
  2
NOCUT
 70
     0
 62
     7
  6
Continuous
370
    25
390
F
  0
LAYER
  5
17E
330
2
100
AcDbSymbolTableRecord
100
AcDbLayerTableRecord
  2
SK1
 70
     0
 62
     4
  6
Continuous
370
    50
390
F
  0
LAYER
  5
17F
330
2
100
AcDbSymbolTableRecord
100
AcDbLayerTableRecord
  2
SK2
 70
     0
 62
     7
  6
Continuous
370
    25
390
F
  0
LAYER
  5
180
330
2
100
AcDbSymbolTableRecord
100
AcDbLayerTableRecord
  2
SK3
 70
     0
 62
     1
  6
DASH
370
    35
390
F
  0
LAYER
  5
181
330
2
100
AcDbSymbolTableRecord
100
AcDbLayerTableRecord
  2
SK4
 70
     0
 62
     2
  6
LONGDASH_DASH
370
    25
390
F
  0
LAYER
  5
182
330
2
100
AcDbSymbolTableRecord
100
AcDbLayerTableRecord
  2
SK6
 70
     0
 62
     5
  6
Continuous
370
    -3
390
F
  0
LAYER
  5
183
330
2
100
AcDbSymbolTableRecord
100
AcDbLayerTableRecord
  2
INFTOTAL
 70
     0
 62
     9
  6
Continuous
370
    18
390
F
  0
LAYER
  5
27D
330
2
100
AcDbSymbolTableRecord
100
AcDbLayerTableRecord
  2
7
 70
     0
 62
     5
  6
Continuous
370
    -3
390
F
1001
AcAecLayerStandard
1000

1000

  0
ENDTAB
  0
TABLE
  2
STYLE
  5
3
330
0
100
AcDbSymbolTable
 70
     2
  0
STYLE
  5
11
330
3
100
AcDbSymbolTableRecord
100
AcDbTextStyleTableRecord
  2
Standard
 70
     0
 40
0.0
 41
1.0
 50
0.0
 71
     0
 42
0.2
  3
txt
  4

  0
STYLE
  5
13C
330
3
100
AcDbSymbolTableRecord
100
AcDbTextStyleTableRecord
  2
BMG_Text
 70
     0
 40
3.5
 41
1.0
 50
0.0
 71
     0
 42
0.2
  3
monos.ttf
  4

1001
ACAD
1000
Monospac821 BT
1071
       49
  0
ENDTAB
  0
TABLE
  2
VIEW
  5
6
330
0
100
AcDbSymbolTable
 70
     0
  0
ENDTAB
  0
TABLE
  2
UCS
  5
7
330
0
100
AcDbSymbolTable
 70
     0
  0
ENDTAB
  0
TABLE
  2
APPID
  5
9
330
0
100
AcDbSymbolTable
 70
     2
  0
APPID
  5
12
330
9
100
AcDbSymbolTableRecord
100
AcDbRegAppTableRecord
  2
ACAD
 70
     0
  0
APPID
  5
27E
330
9
100
AcDbSymbolTableRecord
100
AcDbRegAppTableRecord
  2
AcAecLayerStandard
 70
     0
  0
ENDTAB
  0
TABLE
  2
DIMSTYLE
  5
A
330
0
100
AcDbSymbolTable
 70
     1
100
AcDbDimStyleTable
  0
DIMSTYLE
105
28
330
A
100
AcDbSymbolTableRecord
100
AcDbDimStyleTableRecord
  2
Standard
 70
     0
178
     0
340
11
  0
ENDTAB
  0
TABLE
  2
BLOCK_RECORD
  5
1
330
0
100
AcDbSymbolTable
 70
     0
  0
BLOCK_RECORD
  5
1D
102
{ACAD_XDICTIONARY
360
282
102
}
330
1
100
AcDbSymbolTableRecord
100
AcDbBlockTableRecord
  2
*Model_Space
340
1E
  0
BLOCK_RECORD
  5
1B
330
1
100
AcDbSymbolTableRecord
100
AcDbBlockTableRecord
  2
*Paper_Space
340
1C
  0
ENDTAB
  0
ENDSEC
  0
SECTION
  2
BLOCKS
  0
BLOCK
  5
125
330
1D
100
AcDbEntity
  8
0
100
AcDbBlockBegin
  2
*Model_Space
 70
     0
 10
0.0
 20
0.0
 30
0.0
  3
*Model_Space
  1

  0
ENDBLK
  5
126
330
1D
100
AcDbEntity
  8
0
100
AcDbBlockEnd
  0
BLOCK
  5
123
330
1B
100
AcDbEntity
 67
     1
  8
0
100
AcDbBlockBegin
  2
*Paper_Space
 70
     0
 10
0.0
 20
0.0
 30
0.0
  3
*Paper_Space
  1

  0
ENDBLK
  5
124
330
1B
100
AcDbEntity
 67
     1
  8
0
100
AcDbBlockEnd
  0
ENDSEC
  0
SECTION
  2
ENTITIES
  0
LINE
  5
29
330
1D
100
AcDbEntity
  8
1
100
AcDbLine
 10
28.969569259
 20
-2.352773474
 30
0.0
 11
28.969569259
 21
-31.499911993
 31
0.0
  0
LINE
  5
2A
330
1D
100
AcDbEntity
  8
1
100
AcDbLine
 10
28.969569259
 20
-31.499911993
 30
0.0
 11
0.992872637
 21
-31.499911993
 31
0.0
  0
LINE
  5
2B
330
1D
100
AcDbEntity
  8
1
100
AcDbLine
 10
0.992872637
 20
-31.499911993
 30
0.0
 11
0.481933685
 21
-30.990088627
 31
0.0
  0
LINE
  5
2C
330
1D
100
AcDbEntity
  8
1
100
AcDbLine
 10
0.481933685
 20
-30.990088627
 30
0.0
 11
0.481933685
 21
31.018209482
 31
0.0
  0
LINE
  5
2D
330
1D
100
AcDbEntity
  8
1
100
AcDbLine
 10
0.481933685
 20
31.018209482
 30
0.0
 11
0.992872637
 21
31.500143167
 31
0.0
  0
LINE
  5
2E
330
1D
100
AcDbEntity
  8
1
100
AcDbLine
 10
0.992872637
 20
31.500143167
 30
0.0
 11
30.641355702
 21
31.500143167
 31
0.0
  0
LINE
  5
2F
330
1D
100
AcDbEntity
  8
1
100
AcDbLine
 10
30.641355702
 20
31.500143167
 30
0.0
 11
30.982088627
 21
30.217911373
 31
0.0
  0
LINE
  5
30
330
1D
100
AcDbEntity
  8
1
100
AcDbLine
 10
30.982088627
 20
30.217911373
 30
0.0
 11
67.201778742
 21
20.490197134
 31
0.0
  0
LINE
  5
31
330
1D
100
AcDbEntity
  8
1
100
AcDbLine
 10
67.201778742
 20
20.490197134
 30
0.0
 11
67.201778742
 21
-24.966008104
 31
0.0
  0
LINE
  5
32
330
1D
100
AcDbEntity
  8
1
100
AcDbLine
 10
67.201778742
 20
-24.966008104
 30
0.0
 11
65.991447165
 21
-27.041834521
 31
0.0
  0
LINE
  5
33
330
1D
100
AcDbEntity
  8
1
100
AcDbLine
 10
65.991447165
 20
-27.041834521
 30
0.0
 11
31.49302758
 21
-27.041834521
 31
0.0
  0
LINE
  5
34
330
1D
100
AcDbEntity
  8
1
100
AcDbLine
 10
31.49302758
 20
-27.041834521
 30
0.0
 11
29.480508212
 21
-30.500154943
 31
0.0
  0
LINE
  5
35
330
1D
100
AcDbEntity
  8
1
100
AcDbLine
 10
29.480508212
 20
-30.500154943
 30
0.0
 11
28.969569259
 21
-30.500154943
 31
0.0
  0
LINE
  5
36
330
1D
100
AcDbEntity
  8
SK4
100
AcDbLine
 10
38.976386737
 20
1.644375581
 30
0.0
 11
24.973535792
 21
1.644375581
 31
0.0
  0
LINE
  5
37
330
1D
100
AcDbEntity
  8
1
100
AcDbLine
 10
52.724883793
 20
-30.046110939
 30
0.0
 11
43.229005268
 21
-30.046110939
 31
0.0
  0
LINE
  5
38
330
1D
100
AcDbEntity
  8
1
100
AcDbLine
 10
28.969569259
 20
31.500143167
 30
0.0
 11
28.969569259
 21
5.669414317
 31
0.0
  0
LINE
  5
39
330
1D
100
AcDbEntity
  8
1
100
AcDbLine
 10
0.0
 20
-29.08224357
 30
0.0
 11
0.397149055
 21
-29.479392625
 31
0.0
  0
LINE
  5
3A
330
1D
100
AcDbEntity
  8
1
100
AcDbLine
 10
0.0
 20
29.113480012
 30
0.0
 11
0.397149055
 21
29.50951348
 31
0.0
  0
LINE
  5
3B
330
1D
100
AcDbEntity
  8
SK4
100
AcDbLine
 10
47.990331577
 20
-32.030740626
 30
0.0
 11
47.990331577
 21
40.11205454
 31
0.0
  0
LINE
  5
3C
330
1D
100
AcDbEntity
  8
1
100
AcDbLine
 10
60.463712426
 20
22.29987533492791
 30
0.0
 11
60.463712426
 21
29.999994422
 31
0.0
  0
LINE
  5
3D
330
1D
100
AcDbEntity
  8
1
100
AcDbLine
 10
35.462286954
 20
29.01464075084046
 30
0.0
 11
35.462286954
 21
29.999994422
 31
0.0
  0
LINE
  5
3E
330
1D
100
AcDbEntity
  8
1
100
AcDbLine
 10
33.420762318
 20
-0.850077471
 30
0.0
 11
30.529160211
 21
-0.850077471
 31
0.0
  0
LINE
  5
3F
330
1D
100
AcDbEntity
  8
1
100
AcDbLine
 10
30.529160211
 20
-0.850077471
 30
0.0
 11
29.083359157
 21
1.644375581
 31
0.0
  0
LINE
  5
40
330
1D
100
AcDbEntity
  8
1
100
AcDbLine
 10
29.083359157
 20
1.644375581
 30
0.0
 11
30.529160211
 21
4.167833901
 31
0.0
  0
LINE
  5
41
330
1D
100
AcDbEntity
  8
1
100
AcDbLine
 10
30.529160211
 20
4.167833901
 30
0.0
 11
33.420762318
 21
4.167833901
 31
0.0
  0
LINE
  5
42
330
1D
100
AcDbEntity
  8
1
100
AcDbLine
 10
33.420762318
 20
4.167833901
 30
0.0
 11
34.866563372
 21
1.644375581
 31
0.0
  0
LINE
  5
43
330
1D
100
AcDbEntity
  8
1
100
AcDbLine
 10
34.866563372
 20
1.644375581
 30
0.0
 11
33.420762318
 21
-0.850077471
 31
0.0
  0
LINE
  5
44
330
1D
100
AcDbEntity
  8
1
100
AcDbLine
 10
36.99175705
 20
1.644375581
 30
0.0
 11
36.879082739
 21
2.637248218
 31
0.0
  0
LINE
  5
45
330
1D
100
AcDbEntity
  8
1
100
AcDbLine
 10
36.879082739
 20
2.637248218
 30
0.0
 11
36.595723582
 21
3.572110319
 31
0.0
  0
LINE
  5
46
330
1D
100
AcDbEntity
  8
1
100
AcDbLine
 10
36.595723582
 20
3.572110319
 30
0.0
 11
36.113789898
 21
4.422187791
 31
0.0
  0
LINE
  5
47
330
1D
100
AcDbEntity
  8
1
100
AcDbLine
 10
36.113789898
 20
4.422187791
 30
0.0
 11
35.518066315
 21
5.187480632
 31
0.0
  0
LINE
  5
48
330
1D
100
AcDbEntity
  8
1
100
AcDbLine
 10
35.518066315
 20
5.187480632
 30
0.0
 11
34.752773474
 21
5.783204214
 31
0.0
  0
LINE
  5
49
330
1D
100
AcDbEntity
  8
1
100
AcDbLine
 10
34.752773474
 20
5.783204214
 30
0.0
 11
33.902696002
 21
6.265137899
 31
0.0
  0
LINE
  5
4A
330
1D
100
AcDbEntity
  8
1
100
AcDbLine
 10
33.902696002
 20
6.265137899
 30
0.0
 11
32.966718314
 21
6.548497056
 31
0.0
  0
LINE
  5
4B
330
1D
100
AcDbEntity
  8
1
100
AcDbLine
 10
32.966718314
 20
6.548497056
 30
0.0
 11
31.974961264
 21
6.662286954
 31
0.0
  0
LINE
  5
4C
330
1D
100
AcDbEntity
  8
1
100
AcDbLine
 10
31.974961264
 20
6.662286954
 30
0.0
 11
30.954198946
 21
6.548497056
 31
0.0
  0
LINE
  5
4D
330
1D
100
AcDbEntity
  8
1
100
AcDbLine
 10
30.954198946
 20
6.548497056
 30
0.0
 11
30.019336845
 21
6.265137899
 31
0.0
  0
LINE
  5
4E
330
1D
100
AcDbEntity
  8
1
100
AcDbLine
 10
30.019336845
 20
6.265137899
 30
0.0
 11
29.168143787
 21
5.783204214
 31
0.0
  0
LINE
  5
4F
330
1D
100
AcDbEntity
  8
1
100
AcDbLine
 10
29.168143787
 20
5.783204214
 30
0.0
 11
28.402850945
 21
5.187480632
 31
0.0
  0
LINE
  5
50
330
1D
100
AcDbEntity
  8
1
100
AcDbLine
 10
28.402850945
 20
5.187480632
 30
0.0
 11
27.80824295
 21
4.422187791
 31
0.0
  0
LINE
  5
51
330
1D
100
AcDbEntity
  8
1
100
AcDbLine
 10
27.80824295
 20
4.422187791
 30
0.0
 11
27.326309266
 21
3.572110319
 31
0.0
  0
LINE
  5
52
330
1D
100
AcDbEntity
  8
1
100
AcDbLine
 10
27.326309266
 20
3.572110319
 30
0.0
 11
27.041834521
 21
2.637248218
 31
0.0
  0
LINE
  5
53
330
1D
100
AcDbEntity
  8
1
100
AcDbLine
 10
27.041834521
 20
2.637248218
 30
0.0
 11
26.957049892
 21
1.644375581
 31
0.0
  0
LINE
  5
54
330
1D
100
AcDbEntity
  8
1
100
AcDbLine
 10
26.957049892
 20
1.644375581
 30
0.0
 11
27.041834521
 21
0.623613263
 31
0.0
  0
LINE
  5
55
330
1D
100
AcDbEntity
  8
1
100
AcDbLine
 10
27.041834521
 20
0.623613263
 30
0.0
 11
27.326309266
 21
-0.311248838
 31
0.0
  0
LINE
  5
56
330
1D
100
AcDbEntity
  8
1
100
AcDbLine
 10
27.326309266
 20
-0.311248838
 30
0.0
 11
27.80824295
 21
-1.161326309
 31
0.0
  0
LINE
  5
57
330
1D
100
AcDbEntity
  8
1
100
AcDbLine
 10
27.80824295
 20
-1.161326309
 30
0.0
 11
28.402850945
 21
-1.926619151
 31
0.0
  0
LINE
  5
58
330
1D
100
AcDbEntity
  8
1
100
AcDbLine
 10
28.402850945
 20
-1.926619151
 30
0.0
 11
29.168143787
 21
-2.522342733
 31
0.0
  0
LINE
  5
59
330
1D
100
AcDbEntity
  8
1
100
AcDbLine
 10
29.168143787
 20
-2.522342733
 30
0.0
 11
30.019336845
 21
-3.004276418
 31
0.0
  0
LINE
  5
5A
330
1D
100
AcDbEntity
  8
1
100
AcDbLine
 10
30.019336845
 20
-3.004276418
 30
0.0
 11
30.954198946
 21
-3.287635575
 31
0.0
  0
LINE
  5
5B
330
1D
100
AcDbEntity
  8
1
100
AcDbLine
 10
30.954198946
 20
-3.287635575
 30
0.0
 11
31.974961264
 21
-3.372420205
 31
0.0
  0
LINE
  5
5C
330
1D
100
AcDbEntity
  8
1
100
AcDbLine
 10
31.974961264
 20
-3.372420205
 30
0.0
 11
32.966718314
 21
-3.287635575
 31
0.0
  0
LINE
  5
5D
330
1D
100
AcDbEntity
  8
1
100
AcDbLine
 10
32.966718314
 20
-3.287635575
 30
0.0
 11
33.902696002
 21
-3.004276418
 31
0.0
  0
LINE
  5
5E
330
1D
100
AcDbEntity
  8
1
100
AcDbLine
 10
33.902696002
 20
-3.004276418
 30
0.0
 11
34.752773474
 21
-2.522342733
 31
0.0
  0
LINE
  5
5F
330
1D
100
AcDbEntity
  8
1
100
AcDbLine
 10
34.752773474
 20
-2.522342733
 30
0.0
 11
35.518066315
 21
-1.926619151
 31
0.0
  0
LINE
  5
60
330
1D
100
AcDbEntity
  8
1
100
AcDbLine
 10
35.518066315
 20
-1.926619151
 30
0.0
 11
36.113789898
 21
-1.161326309
 31
0.0
  0
LINE
  5
61
330
1D
100
AcDbEntity
  8
1
100
AcDbLine
 10
36.113789898
 20
-1.161326309
 30
0.0
 11
36.595723582
 21
-0.311248838
 31
0.0
  0
LINE
  5
62
330
1D
100
AcDbEntity
  8
1
100
AcDbLine
 10
36.595723582
 20
-0.311248838
 30
0.0
 11
36.879082739
 21
0.623613263
 31
0.0
  0
LINE
  5
63
330
1D
100
AcDbEntity
  8
1
100
AcDbLine
 10
36.879082739
 20
0.623613263
 30
0.0
 11
36.99175705
 21
1.644375581
 31
0.0
  0
LINE
  5
64
330
1D
100
AcDbEntity
  8
1
100
AcDbLine
 10
43.229005268
 20
-30.046110939
 30
0.0
 11
32.031856213
 21
-27.041834521
 31
0.0
  0
LINE
  5
66
330
1D
100
AcDbEntity
  8
SK4
100
AcDbLine
 10
-15.505546948
 20
-6.49048652
 30
0.0
 11
-15.505546948
 21
6.520607375
 31
0.0
  0
LINE
  5
67
330
1D
100
AcDbEntity
  8
SK1
100
AcDbLine
 10
-35.00824295
 20
18.001115587
 30
0.0
 11
0.0
 21
18.001115587
 31
0.0
  0
LINE
  5
68
330
1D
100
AcDbEntity
  8
SK1
100
AcDbLine
 10
-35.00824295
 20
-18.0
 30
0.0
 11
0.0
 21
-18.0
 31
0.0
  0
LINE
  5
69
330
1D
100
AcDbEntity
  8
SK1
100
AcDbLine
 10
-39.997149055
 20
17.00824295
 30
0.0
 11
-39.997149055
 21
-16.979237682
 31
0.0
  0
LINE
  5
6A
330
1D
100
AcDbEntity
  8
1
100
AcDbLine
 10
0.0
 20
29.113480012
 30
0.0
 11
0.0
 21
-29.08224357
 31
0.0
  0
LINE
  5
6B
330
1D
100
AcDbEntity
  8
SK1
100
AcDbLine
 10
-38.806817478
 20
17.972110319
 30
0.0
 11
-38.976386737
 21
18.001115587
 31
0.0
  0
LINE
  5
6C
330
1D
100
AcDbEntity
  8
SK1
100
AcDbLine
 10
-38.976386737
 20
18.001115587
 30
0.0
 11
-39.373535792
 21
17.916330958
 31
0.0
  0
LINE
  5
6D
330
1D
100
AcDbEntity
  8
SK1
100
AcDbLine
 10
-39.373535792
 20
17.916330958
 30
0.0
 11
-39.685900217
 21
17.688751162
 31
0.0
  0
LINE
  5
6E
330
1D
100
AcDbEntity
  8
SK1
100
AcDbLine
 10
-39.685900217
 20
17.688751162
 30
0.0
 11
-39.912364425
 21
17.377502324
 31
0.0
  0
LINE
  5
6F
330
1D
100
AcDbEntity
  8
SK1
100
AcDbLine
 10
-39.912364425
 20
17.377502324
 30
0.0
 11
-39.969259374
 21
17.00824295
 31
0.0
  0
LINE
  5
70
330
1D
100
AcDbEntity
  8
SK1
100
AcDbLine
 10
-39.969259374
 20
-16.979237682
 30
0.0
 11
-39.912364425
 21
-17.376386737
 31
0.0
  0
LINE
  5
71
330
1D
100
AcDbEntity
  8
SK1
100
AcDbLine
 10
-39.912364425
 20
-17.376386737
 30
0.0
 11
-39.685900217
 21
-17.687635575
 31
0.0
  0
LINE
  5
72
330
1D
100
AcDbEntity
  8
SK1
100
AcDbLine
 10
-39.685900217
 20
-17.687635575
 30
0.0
 11
-39.373535792
 21
-17.91521537
 31
0.0
  0
LINE
  5
73
330
1D
100
AcDbEntity
  8
SK1
100
AcDbLine
 10
-39.373535792
 20
-17.91521537
 30
0.0
 11
-38.976386737
 21
-17.972110319
 31
0.0
  0
LINE
  5
74
330
1D
100
AcDbEntity
  8
SK1
100
AcDbLine
 10
-38.976386737
 20
-17.972110319
 30
0.0
 11
-38.806817478
 21
-17.972110319
 31
0.0
  0
LINE
  5
75
330
1D
100
AcDbEntity
  8
SK1
100
AcDbLine
 10
-35.00824295
 20
18.001115587
 30
0.0
 11
-35.00824295
 21
-18.0
 31
0.0
  0
LINE
  5
76
330
1D
100
AcDbEntity
  8
SK1
100
AcDbLine
 10
-35.00824295
 20
-18.0
 30
0.0
 11
-37.191447165
 21
-17.687635575
 31
0.0
  0
LINE
  5
77
330
1D
100
AcDbEntity
  8
SK1
100
AcDbLine
 10
-38.834707158
 20
-17.972110319
 30
0.0
 11
-37.191447165
 21
-17.687635575
 31
0.0
  0
LINE
  5
78
330
1D
100
AcDbEntity
  8
SK1
100
AcDbLine
 10
-38.834707158
 20
18.001115587
 30
0.0
 11
-37.191447165
 21
17.688751162
 31
0.0
  0
LINE
  5
79
330
1D
100
AcDbEntity
  8
SK1
100
AcDbLine
 10
-35.00824295
 20
18.001115587
 30
0.0
 11
-37.191447165
 21
17.688751162
 31
0.0
  0
LINE
  5
7A
330
1D
100
AcDbEntity
  8
SK1
100
AcDbLine
 10
-10.998574527
 20
0.0
 30
0.0
 11
-11.111248838
 21
0.879082739
 31
0.0
  0
LINE
  5
7B
330
1D
100
AcDbEntity
  8
SK1
100
AcDbLine
 10
-11.111248838
 20
0.879082739
 30
0.0
 11
-11.366718314
 21
1.729160211
 31
0.0
  0
LINE
  5
7C
330
1D
100
AcDbEntity
  8
SK1
100
AcDbLine
 10
-11.366718314
 20
1.729160211
 30
0.0
 11
-11.79175705
 21
2.49556864
 31
0.0
  0
LINE
  5
7D
330
1D
100
AcDbEntity
  8
SK1
100
AcDbLine
 10
-11.79175705
 20
2.49556864
 30
0.0
 11
-12.330585683
 21
3.174961264
 31
0.0
  0
LINE
  5
7E
330
1D
100
AcDbEntity
  8
SK1
100
AcDbLine
 10
-12.330585683
 20
3.174961264
 30
0.0
 11
-12.982088627
 21
3.713789898
 31
0.0
  0
LINE
  5
7F
330
1D
100
AcDbEntity
  8
SK1
100
AcDbLine
 10
-12.982088627
 20
3.713789898
 30
0.0
 11
-13.748497056
 21
4.138828633
 31
0.0
  0
LINE
  5
80
330
1D
100
AcDbEntity
  8
SK1
100
AcDbLine
 10
-13.748497056
 20
4.138828633
 30
0.0
 11
-14.598574527
 21
4.39429811
 31
0.0
  0
LINE
  5
81
330
1D
100
AcDbEntity
  8
SK1
100
AcDbLine
 10
-14.598574527
 20
4.39429811
 30
0.0
 11
-15.477657267
 21
4.508088007
 31
0.0
  0
LINE
  5
82
330
1D
100
AcDbEntity
  8
SK1
100
AcDbLine
 10
-15.477657267
 20
4.508088007
 30
0.0
 11
-16.384629687
 21
4.39429811
 31
0.0
  0
LINE
  5
83
330
1D
100
AcDbEntity
  8
SK1
100
AcDbLine
 10
-16.384629687
 20
4.39429811
 30
0.0
 11
-17.234707158
 21
4.138828633
 31
0.0
  0
LINE
  5
84
330
1D
100
AcDbEntity
  8
SK1
100
AcDbLine
 10
-17.234707158
 20
4.138828633
 30
0.0
 11
-18.0
 21
3.713789898
 31
0.0
  0
LINE
  5
85
330
1D
100
AcDbEntity
  8
SK1
100
AcDbLine
 10
-18.0
 20
3.713789898
 30
0.0
 11
-18.651502944
 21
3.174961264
 31
0.0
  0
LINE
  5
86
330
1D
100
AcDbEntity
  8
SK1
100
AcDbLine
 10
-18.651502944
 20
3.174961264
 30
0.0
 11
-19.190331577
 21
2.49556864
 31
0.0
  0
LINE
  5
87
330
1D
100
AcDbEntity
  8
SK1
100
AcDbLine
 10
-19.190331577
 20
2.49556864
 30
0.0
 11
-19.615370313
 21
1.729160211
 31
0.0
  0
LINE
  5
88
330
1D
100
AcDbEntity
  8
SK1
100
AcDbLine
 10
-19.615370313
 20
1.729160211
 30
0.0
 11
-19.870839789
 21
0.879082739
 31
0.0
  0
LINE
  5
89
330
1D
100
AcDbEntity
  8
SK1
100
AcDbLine
 10
-19.870839789
 20
0.879082739
 30
0.0
 11
-19.955624419
 21
0.0
 31
0.0
  0
LINE
  5
8A
330
1D
100
AcDbEntity
  8
SK1
100
AcDbLine
 10
-19.955624419
 20
0.0
 30
0.0
 11
-19.870839789
 21
-0.90697242
 31
0.0
  0
LINE
  5
8B
330
1D
100
AcDbEntity
  8
SK1
100
AcDbLine
 10
-19.870839789
 20
-0.90697242
 30
0.0
 11
-19.615370313
 21
-1.757049892
 31
0.0
  0
LINE
  5
8C
330
1D
100
AcDbEntity
  8
SK1
100
AcDbLine
 10
-19.615370313
 20
-1.757049892
 30
0.0
 11
-19.190331577
 21
-2.522342733
 31
0.0
  0
LINE
  5
8D
330
1D
100
AcDbEntity
  8
SK1
100
AcDbLine
 10
-19.190331577
 20
-2.522342733
 30
0.0
 11
-18.651502944
 21
-3.202850945
 31
0.0
  0
LINE
  5
8E
330
1D
100
AcDbEntity
  8
SK1
100
AcDbLine
 10
-18.651502944
 20
-3.202850945
 30
0.0
 11
-18.0
 21
-3.741679579
 31
0.0
  0
LINE
  5
8F
330
1D
100
AcDbEntity
  8
SK1
100
AcDbLine
 10
-18.0
 20
-3.741679579
 30
0.0
 11
-17.234707158
 21
-4.166718314
 31
0.0
  0
LINE
  5
90
330
1D
100
AcDbEntity
  8
SK1
100
AcDbLine
 10
-17.234707158
 20
-4.166718314
 30
0.0
 11
-16.384629687
 21
-4.422187791
 31
0.0
  0
LINE
  5
93
330
1D
100
AcDbEntity
  8
SK1
100
AcDbLine
 10
-14.598574527
 20
-4.422187791
 30
0.0
 11
-13.748497056
 21
-4.166718314
 31
0.0
  0
LINE
  5
94
330
1D
100
AcDbEntity
  8
SK1
100
AcDbLine
 10
-13.748497056
 20
-4.166718314
 30
0.0
 11
-12.982088627
 21
-3.741679579
 31
0.0
  0
LINE
  5
95
330
1D
100
AcDbEntity
  8
SK1
100
AcDbLine
 10
-12.982088627
 20
-3.741679579
 30
0.0
 11
-12.330585683
 21
-3.202850945
 31
0.0
  0
LINE
  5
96
330
1D
100
AcDbEntity
  8
SK1
100
AcDbLine
 10
-12.330585683
 20
-3.202850945
 30
0.0
 11
-11.79175705
 21
-2.522342733
 31
0.0
  0
LINE
  5
97
330
1D
100
AcDbEntity
  8
SK1
100
AcDbLine
 10
-11.79175705
 20
-2.522342733
 30
0.0
 11
-11.366718314
 21
-1.757049892
 31
0.0
  0
LINE
  5
98
330
1D
100
AcDbEntity
  8
SK1
100
AcDbLine
 10
-11.366718314
 20
-1.757049892
 30
0.0
 11
-11.111248838
 21
-0.90697242
 31
0.0
  0
LINE
  5
99
330
1D
100
AcDbEntity
  8
SK1
100
AcDbLine
 10
-11.111248838
 20
-0.90697242
 30
0.0
 11
-10.998574527
 21
0.0
 31
0.0
  0
LINE
  5
9A
330
1D
100
AcDbEntity
  8
SK4
100
AcDbLine
 10
-42.009668423
 20
0.0
 30
0.0
 11
69.186408429
 21
0.0
 31
0.0
  0
LINE
  5
9B
330
1D
100
AcDbEntity
  8
SK4
100
AcDbLine
 10
31.974961264
 20
-5.329160211
 30
0.0
 11
31.974961264
 21
8.645801054
 31
0.0
  0
LINE
  5
9C
330
1D
100
AcDbEntity
  8
SK3
100
AcDbLine
 10
-39.997149055
 20
-7.993182522
 30
0.0
 11
-3.004276418
 21
-7.993182522
 31
0.0
  0
LINE
  5
9D
330
1D
100
AcDbEntity
  8
SK3
100
AcDbLine
 10
-39.997149055
 20
7.99429811
 30
0.0
 11
-3.004276418
 21
7.99429811
 31
0.0
  0
LINE
  5
9E
330
1D
100
AcDbEntity
  8
SK3
100
AcDbLine
 10
-3.004276418
 20
7.99429811
 30
0.0
 11
-3.004276418
 21
-7.993182522
 31
0.0
  0
LINE
  5
9F
330
1D
100
AcDbEntity
  8
SK3
100
AcDbLine
 10
-3.004276418
 20
-7.993182522
 30
0.0
 11
0.0
 21
-2.7962630305841
 31
0.0
  0
LINE
  5
A0
330
1D
100
AcDbEntity
  8
SK3
100
AcDbLine
 10
-3.004276418
 20
7.99429811
 30
0.0
 11
0.0
 21
2.796653297849119
 31
0.0
  0
LINE
  5
A1
330
1D
100
AcDbEntity
  8
SK3
100
AcDbLine
 10
-0.481933685
 20
3.629005268
 30
0.0
 11
0.0
 21
3.829899459692612
 31
0.0
  0
LINE
  5
A2
330
1D
100
AcDbEntity
  8
SK4
100
AcDbLine
 10
-3.6
 20
5.045801054
 30
0.0
 11
48.529160211
 21
26.759590951
 31
0.0
  0
LINE
  5
A3
330
1D
100
AcDbEntity
  8
SK3
100
AcDbLine
 10
-3.004276418
 20
7.99429811
 30
0.0
 11
0.0
 21
9.245206990859607
 31
0.0
  0
LINE
  5
A4
330
1D
100
AcDbEntity
  8
3
100
AcDbLine
 10
35.462286954
 20
29.01464075084046
 30
0.0
 11
35.462286954
 21
-27.069724202
 31
0.0
  0
LINE
  5
A5
330
1D
100
AcDbEntity
  8
3
100
AcDbLine
 10
60.463712426
 20
-27.069724202
 30
0.0
 11
60.463712426
 21
22.29987533492791
 31
0.0
  0
LINE
  5
A6
330
1D
100
AcDbEntity
  8
1
100
AcDbLine
 10
35.999963905
 20
29.999994422
 30
0.0
 11
35.462286954
 21
29.999994422
 31
0.0
  0
LINE
  5
A7
330
1D
100
AcDbEntity
  8
1
100
AcDbLine
 10
50.816324378
 20
30.499963905
 30
0.0
 11
51.316324378
 21
30.00002494
 31
0.0
  0
LINE
  5
A8
330
1D
100
AcDbEntity
  8
1
100
AcDbLine
 10
45.183664466
 20
30.499963905
 30
0.0
 11
44.683664466
 21
29.999994422
 31
0.0
  0
LINE
  5
A9
330
1D
100
AcDbEntity
  8
1
100
AcDbLine
 10
61.853265907
 20
38.092249061
 30
0.0
 11
70.418420936
 21
42.456400062
 31
0.0
  0
ARC
  5
AA
330
1D
100
AcDbEntity
  8
1
100
AcDbCircle
 10
70.600000526
 20
42.100000526
 30
0.0
 40
0.399999474
100
AcDbArc
 50
357.000002303
 51
117.000039671
  0
LINE
  5
AB
330
1D
100
AcDbEntity
  8
1
100
AcDbLine
 10
70.999445106
 20
42.079080726
 30
0.0
 11
70.496347572
 21
32.479364539
 31
0.0
  0
ARC
  5
AC
330
1D
100
AcDbEntity
  8
1
100
AcDbCircle
 10
70.096902992
 20
32.500299598
 30
0.0
 40
0.400000011
100
AcDbArc
 50
236.999880778
 51
357.000002303
  0
LINE
  5
AD
330
1D
100
AcDbEntity
  8
1
100
AcDbLine
 10
69.020776893
 20
41.744272376
 30
0.0
 11
68.920053626
 21
41.941965247
 31
0.0
  0
LINE
  5
AE
330
1D
100
AcDbEntity
  8
1
100
AcDbLine
 10
70.08124925129387
 20
32.1006060038533
 30
0.0
 11
69.975885536
 21
29.999994422
 31
0.0
  0
ARC
  5
AF
330
1D
100
AcDbEntity
  8
1
100
AcDbCircle
 10
62.624048377
 20
37.704965736
 30
0.0
 40
1.60000013
100
AcDbArc
 50
87.00000341899998
 51
267.000003419
  0
LINE
  5
B0
330
1D
100
AcDbEntity
  8
1
100
AcDbLine
 10
62.540323402
 20
36.107156898
 30
0.0
 11
63.919748451
 21
36.034845497
 31
0.0
  0
LINE
  5
B1
330
1D
100
AcDbEntity
  8
1
100
AcDbLine
 10
62.707788612
 20
39.302789832
 30
0.0
 11
64.087198402
 21
39.230478431
 31
0.0
  0
ARC
  5
B2
330
1D
100
AcDbEntity
  8
1
100
AcDbCircle
 10
62.034860755
 20
37.735849525
 30
0.0
 40
0.400001228
100
AcDbArc
 50
117.000012849
 51
236.999988066
  0
LINE
  5
B3
330
1D
100
AcDbEntity
  8
1
100
AcDbLine
 10
69.87905326
 20
32.164835121
 30
0.0
 11
61.817011024
 21
37.400385047
 31
0.0
  0
LINE
  5
B4
330
1D
100
AcDbEntity
  8
1
100
AcDbLine
 10
68.920053626
 20
41.941965247
 30
0.0
 11
60.200014259
 21
40.40438285
 31
0.0
  0
LINE
  5
B6
330
1D
100
AcDbEntity
  8
1
100
AcDbLine
 10
69.975885536
 20
29.999994422
 30
0.0
 11
51.316324378
 21
29.999994422
 31
0.0
  0
LINE
  5
B7
330
1D
100
AcDbEntity
  8
1
100
AcDbLine
 10
59.100519325
 20
38.499994422
 30
0.0
 11
60.199991371
 21
40.404352332
 31
0.0
  0
LINE
  5
B8
330
1D
100
AcDbEntity
  8
1
100
AcDbLine
 10
59.100519325
 20
38.499994422
 30
0.0
 11
53.499994422
 21
38.499994422
 31
0.0
  0
LINE
  5
B9
330
1D
100
AcDbEntity
  8
1
100
AcDbLine
 10
44.683633949
 20
29.999994422
 30
0.0
 11
35.999963905
 21
29.999994422
 31
0.0
  0
ARC
  5
BA
330
1D
100
AcDbEntity
  8
1
100
AcDbCircle
 10
47.999994422
 20
67.326425697
 30
0.0
 40
29.346435164
100
AcDbArc
 50
259.1979294689999
 51
280.80204165
  0
LINE
  5
BB
330
1D
100
AcDbEntity
  8
1
100
AcDbLine
 10
58.701212074
 20
29.999994422
 30
0.0
 11
56.406732704
 21
38.499994422
 31
0.0
  0
LINE
  5
BC
330
1D
100
AcDbEntity
  8
1
100
AcDbLine
 10
58.701212074
 20
38.499994422
 30
0.0
 11
60.199991371
 21
29.999994422
 31
0.0
  0
ARC
  5
BD
330
1D
100
AcDbEntity
  8
1
100
AcDbCircle
 10
38.999979164
 20
35.499994422
 30
0.0
 40
3.0
100
AcDbArc
 50
90.0
 51
180.0
  0
LINE
  5
BE
330
1D
100
AcDbEntity
  8
1
100
AcDbLine
 10
35.999979164
 20
35.499994422
 30
0.0
 11
35.999979164
 21
29.999963905
 31
0.0
  0
LINE
  5
BF
330
1D
100
AcDbEntity
  8
1
100
AcDbLine
 10
42.499979164
 20
38.499994422
 30
0.0
 11
38.999979164
 21
38.499994422
 31
0.0
  0
LINE
  5
C0
330
1D
100
AcDbEntity
  8
1
100
AcDbLine
 10
50.531870033
 20
32.100000526
 30
0.0
 11
45.468134071
 21
32.100000526
 31
0.0
  0
LINE
  5
C1
330
1D
100
AcDbEntity
  8
1
100
AcDbLine
 10
50.816324378
 20
30.499963905
 30
0.0
 11
50.548601295
 21
32.100000526
 31
0.0
  0
LINE
  5
C2
330
1D
100
AcDbEntity
  8
1
100
AcDbLine
 10
45.183664466
 20
30.499963905
 30
0.0
 11
45.45138755
 21
32.100000526
 31
0.0
  0
CIRCLE
  5
C3
102
{ACAD_REACTORS
330
285
102
}
330
1D
100
AcDbEntity
  8
1
100
AcDbCircle
 10
67.577272559
 20
37.445383216
 30
0.0
 40
1.899993886
  0
LINE
  5
C4
330
1D
100
AcDbEntity
  8
SK4
100
AcDbLine
 10
67.577272559
 20
32.945383216
 30
0.0
 11
67.577272559
 21
41.945383216
 31
0.0
  0
LINE
  5
C5
330
1D
100
AcDbEntity
  8
SK4
100
AcDbLine
 10
72.077272559
 20
37.445383216
 30
0.0
 11
63.077272559
 21
37.445383216
 31
0.0
  0
LINE
  5
C6
330
1D
100
AcDbEntity
  8
2
100
AcDbLine
 10
0.0
 20
54.000000398
 30
0.0
 11
0.0
 21
29.113480012
 31
0.0
  0
LINE
  5
C7
330
1D
100
AcDbEntity
  8
2
100
AcDbLine
 10
0.0
 20
52.000000398
 30
0.0
 11
3.500000002
 21
52.450000385
 31
0.0
  0
LINE
  5
C8
330
1D
100
AcDbEntity
  8
2
100
AcDbLine
 10
3.500000002
 20
52.450000385
 30
0.0
 11
3.499999998
 21
51.550000385
 31
0.0
  0
LINE
  5
C9
330
1D
100
AcDbEntity
  8
2
100
AcDbLine
 10
3.499999998
 20
51.550000385
 30
0.0
 11
0.0
 21
52.000000398
 31
0.0
  0
LINE
  5
CA
330
1D
100
AcDbEntity
  8
2
100
AcDbLine
 10
71.0
 20
54.000000145
 30
0.0
 11
71.0
 21
42.100000526
 31
0.0
  0
LINE
  5
CB
330
1D
100
AcDbEntity
  8
2
100
AcDbLine
 10
71.0
 20
52.000000145
 30
0.0
 11
67.499999998
 21
51.550000157
 31
0.0
  0
LINE
  5
CC
330
1D
100
AcDbEntity
  8
2
100
AcDbLine
 10
67.499999998
 20
51.550000157
 30
0.0
 11
67.500000002
 21
52.450000157
 31
0.0
  0
LINE
  5
CD
330
1D
100
AcDbEntity
  8
2
100
AcDbLine
 10
67.500000002
 20
52.450000157
 30
0.0
 11
71.0
 21
52.000000145
 31
0.0
  0
LINE
  5
CE
330
1D
100
AcDbEntity
  8
2
100
AcDbLine
 10
3.5
 20
52.000000385
 30
0.0
 11
67.5
 21
52.000000157
 31
0.0
  0
TEXT
  5
CF
330
1D
100
AcDbEntity
  8
2
100
AcDbText
 10
34.218124212
 20
53.500000276
 30
0.0
 40
3.5
  1
71
 50
359.999999796
  7
BMG_Text
100
AcDbText
  0
LINE
  5
D0
330
1D
100
AcDbEntity
  8
2
100
AcDbLine
 10
-58.000001509
 20
-31.499911993
 30
0.0
 11
0.992872637
 21
-31.499911993
 31
0.0
  0
LINE
  5
D1
330
1D
100
AcDbEntity
  8
2
100
AcDbLine
 10
-56.000001509
 20
-31.499911993
 30
0.0
 11
-56.450001509
 21
-27.999911993
 31
0.0
  0
LINE
  5
D2
330
1D
100
AcDbEntity
  8
2
100
AcDbLine
 10
-56.450001509
 20
-27.999911993
 30
0.0
 11
-55.550001509
 21
-27.999911993
 31
0.0
  0
LINE
  5
D3
330
1D
100
AcDbEntity
  8
2
100
AcDbLine
 10
-55.550001509
 20
-27.999911993
 30
0.0
 11
-56.000001509
 21
-31.499911993
 31
0.0
  0
LINE
  5
D4
330
1D
100
AcDbEntity
  8
2
100
AcDbLine
 10
-58.000001509
 20
31.500143167
 30
0.0
 11
0.992872637
 21
31.500143167
 31
0.0
  0
LINE
  5
D5
330
1D
100
AcDbEntity
  8
2
100
AcDbLine
 10
-56.000001509
 20
31.500143167
 30
0.0
 11
-55.550001509
 21
28.000143167
 31
0.0
  0
LINE
  5
D6
330
1D
100
AcDbEntity
  8
2
100
AcDbLine
 10
-55.550001509
 20
28.000143167
 30
0.0
 11
-56.450001509
 21
28.000143167
 31
0.0
  0
LINE
  5
D7
330
1D
100
AcDbEntity
  8
2
100
AcDbLine
 10
-56.450001509
 20
28.000143167
 30
0.0
 11
-56.000001509
 21
31.500143167
 31
0.0
  0
LINE
  5
D8
330
1D
100
AcDbEntity
  8
2
100
AcDbLine
 10
-56.000001509
 20
-27.999911993
 30
0.0
 11
-56.000001509
 21
28.000143167
 31
0.0
  0
TEXT
  5
D9
330
1D
100
AcDbEntity
  8
2
100
AcDbText
 10
-57.500001509
 20
0.331521133
 30
0.0
 40
3.5
  1
63
 50
90.0
  7
BMG_Text
100
AcDbText
  0
CIRCLE
  5
DA
330
1D
100
AcDbEntity
  8
2
100
AcDbCircle
 10
-58.750001509
 20
-1.918478867
 30
0.0
 40
1.25
  0
LINE
  5
DB
330
1D
100
AcDbEntity
  8
2
100
AcDbLine
 10
-57.500001509
 20
-3.168478867
 30
0.0
 11
-60.000001509
 21
-0.668478867
 31
0.0
  0
LINE
  5
DC
330
1D
100
AcDbEntity
  8
SK2
100
AcDbLine
 10
-50.000000343
 20
-18.0
 30
0.0
 11
-35.00824295
 21
-18.0
 31
0.0
  0
LINE
  5
DD
330
1D
100
AcDbEntity
  8
SK2
100
AcDbLine
 10
-48.000000343
 20
-18.0
 30
0.0
 11
-48.450000343
 21
-14.5
 31
0.0
  0
LINE
  5
DE
330
1D
100
AcDbEntity
  8
SK2
100
AcDbLine
 10
-48.450000343
 20
-14.5
 30
0.0
 11
-47.550000343
 21
-14.5
 31
0.0
  0
LINE
  5
DF
330
1D
100
AcDbEntity
  8
SK2
100
AcDbLine
 10
-47.550000343
 20
-14.5
 30
0.0
 11
-48.000000343
 21
-18.0
 31
0.0
  0
LINE
  5
E0
330
1D
100
AcDbEntity
  8
SK2
100
AcDbLine
 10
-50.000000343
 20
18.001115587
 30
0.0
 11
-35.00824295
 21
18.001115587
 31
0.0
  0
LINE
  5
E1
330
1D
100
AcDbEntity
  8
SK2
100
AcDbLine
 10
-48.000000343
 20
18.001115587
 30
0.0
 11
-47.550000343
 21
14.501115587
 31
0.0
  0
LINE
  5
E2
330
1D
100
AcDbEntity
  8
SK2
100
AcDbLine
 10
-47.550000343
 20
14.501115587
 30
0.0
 11
-48.450000343
 21
14.501115587
 31
0.0
  0
LINE
  5
E3
330
1D
100
AcDbEntity
  8
SK2
100
AcDbLine
 10
-48.450000343
 20
14.501115587
 30
0.0
 11
-48.000000343
 21
18.001115587
 31
0.0
  0
LINE
  5
E4
330
1D
100
AcDbEntity
  8
SK2
100
AcDbLine
 10
-48.000000343
 20
-14.5
 30
0.0
 11
-48.000000343
 21
14.501115587
 31
0.0
  0
TEXT
  5
E5
330
1D
100
AcDbEntity
  8
SK2
100
AcDbText
 10
-49.500000343
 20
0.331963641
 30
0.0
 40
3.5
  1
36
 50
90.0
  7
BMG_Text
100
AcDbText
  0
CIRCLE
  5
E6
330
1D
100
AcDbEntity
  8
SK2
100
AcDbCircle
 10
-50.750000343
 20
-1.918036359
 30
0.0
 40
1.25
  0
LINE
  5
E7
330
1D
100
AcDbEntity
  8
SK2
100
AcDbLine
 10
-49.500000343
 20
-3.168036359
 30
0.0
 11
-52.000000343
 21
-0.668036359
 31
0.0
  0
LINE
  5
E8
330
1D
100
AcDbEntity
  8
2
100
AcDbLine
 10
0.0
 20
-45.999999651
 30
0.0
 11
0.0
 21
-29.08224357
 31
0.0
  0
LINE
  5
E9
330
1D
100
AcDbEntity
  8
2
100
AcDbLine
 10
0.0
 20
-43.999999651
 30
0.0
 11
3.500000008
 21
-43.549999715
 31
0.0
  0
LINE
  5
EA
330
1D
100
AcDbEntity
  8
2
100
AcDbLine
 10
3.500000008
 20
-43.549999715
 30
0.0
 11
3.499999992
 21
-44.449999715
 31
0.0
  0
LINE
  5
EB
330
1D
100
AcDbEntity
  8
2
100
AcDbLine
 10
3.499999992
 20
-44.449999715
 30
0.0
 11
0.0
 21
-43.999999651
 31
0.0
  0
LINE
  5
EC
330
1D
100
AcDbEntity
  8
2
100
AcDbLine
 10
67.201778742
 20
-46.000000895
 30
0.0
 11
67.201778742
 21
-25.000309885
 31
0.0
  0
LINE
  5
ED
330
1D
100
AcDbEntity
  8
2
100
AcDbLine
 10
67.201778742
 20
-44.000000895
 30
0.0
 11
63.701778734
 21
-44.45000083
 31
0.0
  0
LINE
  5
EE
330
1D
100
AcDbEntity
  8
2
100
AcDbLine
 10
63.701778734
 20
-44.45000083
 30
0.0
 11
63.70177875
 21
-43.55000083
 31
0.0
  0
LINE
  5
EF
330
1D
100
AcDbEntity
  8
2
100
AcDbLine
 10
63.70177875
 20
-43.55000083
 30
0.0
 11
67.201778742
 21
-44.000000895
 31
0.0
  0
LINE
  5
F0
330
1D
100
AcDbEntity
  8
2
100
AcDbLine
 10
3.5
 20
-43.999999715
 30
0.0
 11
63.701778742
 21
-44.00000083
 31
0.0
  0
TEXT
  5
F1
330
1D
100
AcDbEntity
  8
2
100
AcDbText
 10
30.377607398
 20
-42.500000213
 30
0.0
 40
3.5
  1
67.2
 50
359.999998939
  7
BMG_Text
100
AcDbText
  0
LINE
  5
F2
330
1D
100
AcDbEntity
  8
2
100
AcDbLine
 10
85.999999191
 20
42.500000673
 30
0.0
 11
70.600000526
 21
42.5
 31
0.0
  0
LINE
  5
F3
330
1D
100
AcDbEntity
  8
2
100
AcDbLine
 10
83.999999191
 20
42.500000586
 30
0.0
 11
84.449999344
 21
39.000000605
 31
0.0
  0
LINE
  5
F4
330
1D
100
AcDbEntity
  8
2
100
AcDbLine
 10
84.449999344
 20
39.000000605
 30
0.0
 11
83.549999344
 21
39.000000566
 31
0.0
  0
LINE
  5
F5
330
1D
100
AcDbEntity
  8
2
100
AcDbLine
 10
83.549999344
 20
39.000000566
 30
0.0
 11
83.999999191
 21
42.500000586
 31
0.0
  0
LINE
  5
F6
330
1D
100
AcDbEntity
  8
2
100
AcDbLine
 10
84.000001234
 20
-4.249999346
 30
0.0
 11
83.999999344
 21
39.000000586
 31
0.0
  0
CIRCLE
  5
F7
330
1D
100
AcDbEntity
  8
2
100
AcDbCircle
 10
81.006089615
 20
-1.621494562
 30
0.0
 40
1.25
  0
LINE
  5
F8
330
1D
100
AcDbEntity
  8
2
100
AcDbLine
 10
82.256089669
 20
-2.871494508
 30
0.0
 11
79.75608956
 21
-0.371494617
 31
0.0
  0
TEXT
  5
F9
330
1D
100
AcDbEntity
  8
2
100
AcDbText
 10
82.256089516
 20
0.628505492
 30
0.0
 40
3.5
  1
85-105
 50
90.00000250400001
  7
BMG_Text
100
AcDbText
  0
TEXT
  5
FA
330
1D
100
AcDbEntity
  8
SK6
100
AcDbText
 10
76.43712936819423
 20
-54.09566768797186
 30
0.0
 40
3.5
  1
310.606A
  7
BMG_Text
100
AcDbText
  0
LINE
  5
19D
330
1D
100
AcDbEntity
  8
NOCUT
100
AcDbLine
 10
63.922032848
 20
27.069955376
 30
0.0
 11
65.991447165
 21
27.069955376
 31
0.0
  0
LINE
  5
19E
330
1D
100
AcDbEntity
  8
NOCUT
100
AcDbLine
 10
65.991447165
 20
27.069955376
 30
0.0
 11
67.201778742
 21
25.02843074
 31
0.0
  0
LINE
  5
19F
330
1D
100
AcDbEntity
  8
NOCUT
100
AcDbLine
 10
67.201778742
 20
25.02843074
 30
0.0
 11
67.201778742
 21
0.0
 31
0.0
  0
LINE
  5
1A5
330
1D
100
AcDbEntity
  8
NOCUT
100
AcDbLine
 10
63.922032848
 20
27.069955376
 30
0.0
 11
60.463712426
 21
27.99784786351341
 31
0.0
  0
LINE
  5
1A6
330
1D
100
AcDbEntity
  8
NOCUT
100
AcDbLine
 10
60.463712426
 20
27.99784786351341
 30
0.0
 11
60.463712426
 21
29.999994422
 31
0.0
  0
LINE
  5
1AC
330
1D
100
AcDbEntity
  8
NOCUT
100
AcDbLine
 10
69.020776893
 20
41.744272376
 30
0.0
 11
68.920053626
 21
41.941965247
 31
0.0
  0
LINE
  5
1AD
330
1D
100
AcDbEntity
  8
NOCUT
100
AcDbLine
 10
68.920053626
 20
41.941965247
 30
0.0
 11
60.200014259
 21
40.40438285
 31
0.0
  0
LINE
  5
1AE
330
1D
100
AcDbEntity
  8
NOCUT
100
AcDbLine
 10
60.200014259
 20
40.40438285
 30
0.0
 11
59.100519325
 21
38.499994422
 31
0.0
  0
LINE
  5
1AF
330
1D
100
AcDbEntity
  8
NOCUT
100
AcDbLine
 10
59.100519325
 20
38.499994422
 30
0.0
 11
53.499994422
 21
38.499994422
 31
0.0
  0
LINE
  5
1B0
330
1D
100
AcDbEntity
  8
NOCUT
100
AcDbLine
 10
42.49997910144729
 20
38.49999531950544
 30
0.0
 11
38.96628772455232
 21
38.49999531950544
 31
0.0
  0
LINE
  5
1B1
330
1D
100
AcDbEntity
  8
NOCUT
100
AcDbLine
 10
36.00551514792264
 20
29.999994422
 30
0.0
 11
36.00551514792264
 21
35.68216263113062
 31
0.0
  0
LINE
  5
1B2
330
1D
100
AcDbEntity
  8
NOCUT
100
AcDbLine
 10
36.00551514792264
 20
29.999994422
 30
0.0
 11
35.462286954
 21
29.999994422
 31
0.0
  0
LINE
  5
1B3
330
1D
100
AcDbEntity
  8
NOCUT
100
AcDbLine
 10
35.462286954
 20
29.999994422
 30
0.0
 11
35.462286954
 21
29.01464075084046
 31
0.0
  0
LINE
  5
1B4
330
1D
100
AcDbEntity
  8
NOCUT
100
AcDbLine
 10
35.462286954
 20
29.01464075084046
 30
0.0
 11
30.982088627
 21
30.217911373
 31
0.0
  0
LINE
  5
1B5
330
1D
100
AcDbEntity
  8
NOCUT
100
AcDbLine
 10
30.982088627
 20
30.217911373
 30
0.0
 11
30.641355702
 21
31.500143167
 31
0.0
  0
LINE
  5
1B6
330
1D
100
AcDbEntity
  8
NOCUT
100
AcDbLine
 10
30.641355702
 20
31.500143167
 30
0.0
 11
0.992872637
 21
31.500143167
 31
0.0
  0
LINE
  5
1B7
330
1D
100
AcDbEntity
  8
NOCUT
100
AcDbLine
 10
0.992872637
 20
31.500143167
 30
0.0
 11
0.481933685
 21
31.018209482
 31
0.0
  0
LINE
  5
1B8
330
1D
100
AcDbEntity
  8
NOCUT
100
AcDbLine
 10
0.481933685
 20
31.018209482
 30
0.0
 11
0.481933685
 21
29.50951348
 31
0.0
  0
LINE
  5
1B9
330
1D
100
AcDbEntity
  8
NOCUT
100
AcDbLine
 10
0.481933685
 20
29.50951348
 30
0.0
 11
0.0
 21
29.113480012
 31
0.0
  0
LINE
  5
1BA
330
1D
100
AcDbEntity
  8
NOCUT
100
AcDbLine
 10
0.0
 20
29.113480012
 30
0.0
 11
0.0000000000000142
 21
0.0
 31
0.0
  0
LINE
  5
1BB
330
1D
100
AcDbEntity
  8
NOCUT
100
AcDbLine
 10
0.0000000000000142
 20
0.0
 30
0.0
 11
67.201778742
 21
0.0
 31
0.0
  0
ARC
  5
1BC
330
1D
100
AcDbEntity
  8
NOCUT
100
AcDbCircle
 10
38.999979164
 20
35.49999442200001
 30
0.0
 40
2.99999999999999
100
AcDbArc
 50
89.99999999999987
 51
180.0000000000001
  0
ARC
  5
1BD
330
1D
100
AcDbEntity
  8
NOCUT
100
AcDbCircle
 10
47.999994422
 20
67.32642569699992
 30
0.0
 40
29.34643516399992
100
AcDbArc
 50
259.1979294689999
 51
280.80204165
  0
LINE
  5
1C2
330
1D
100
AcDbEntity
  8
1
100
AcDbLine
 10
64.087198402
 20
39.230478431
 30
0.0
 11
69.020776893
 21
41.744272376
 31
0.0
  0
LINE
  5
1C5
330
1D
100
AcDbEntity
  8
1
100
AcDbLine
 10
69.020776893
 20
41.744272376
 30
0.0
 11
69.434106971
 21
41.954874183
 31
0.0
  0
LINE
  5
1C6
330
1D
100
AcDbEntity
  8
3
100
AcDbLine
 10
69.43412089799774
 20
41.95487569010157
 30
0.0
 11
70.58175474545561
 21
42.07906618708746
 31
0.0
  0
LINE
  5
1C7
330
1D
100
AcDbEntity
  8
3
100
AcDbLine
 10
70.58175474545561
 20
42.07906618708746
 30
0.0
 11
70.08124925129387
 21
32.1006060038533
 31
0.0
  0
LINE
  5
1C8
330
1D
100
AcDbEntity
  8
1
100
AcDbLine
 10
69.975885536
 20
29.999994422
 30
0.0
 11
60.199991371
 21
29.999994422
 31
0.0
  0
LWPOLYLINE
  5
1E1
330
1D
100
AcDbEntity
  8
INFTOTAL
100
AcDbPolyline
 90
        4
 70
     1
 43
0.0
 10
-80.72765243097223
 20
78.96494082261235
 10
-80.72765243097223
 20
-56.70685228075713
 10
104.1281357203787
 20
-56.70685228075713
 10
104.1281357203787
 20
78.96494082261235
  0
LINE
  5
1E6
330
1D
100
AcDbEntity
  8
1
100
AcDbLine
 10
52.724883793
 20
-30.046110939
 30
0.0
 11
63.922032848
 21
-27.041834521
 31
0.0
  0
LINE
  5
229
330
1D
100
AcDbEntity
  8
SK1
100
AcDbLine
 10
0.0
 20
18.001115587
 30
0.0
 11
0.0
 21
-18.0
 31
0.0
  0
CIRCLE
  5
24A
330
1D
100
AcDbEntity
  8
SK1
100
AcDbCircle
 10
-15.505546948
 20
0.0150604274999999
 30
0.0
 40
4.506997583772491
  0
LINE
  5
24D
330
1D
100
AcDbEntity
  8
4
100
AcDbLine
 10
72.077272559
 20
37.445383216
 30
0.0
 11
63.077272559
 21
37.445383216
 31
0.0
  0
LINE
  5
24E
330
1D
100
AcDbEntity
  8
4
100
AcDbLine
 10
67.577272559
 20
41.945383216
 30
0.0
 11
67.577272559
 21
32.945383216
 31
0.0
  0
LINE
  5
24F
330
1D
100
AcDbEntity
  8
4
100
AcDbLine
 10
47.990331577
 20
40.11205454
 30
0.0
 11
47.990331577
 21
-32.030740626
 31
0.0
  0
LINE
  5
250
330
1D
100
AcDbEntity
  8
4
100
AcDbLine
 10
69.186408429
 20
0.0
 30
0.0
 11
0.0000000000000142
 21
0.0
 31
0.0
  0
LINE
  5
259
330
1D
100
AcDbEntity
  8
4
100
AcDbLine
 10
38.976386737
 20
1.644375581
 30
0.0
 11
24.973535792
 21
1.644375581
 31
0.0
  0
LINE
  5
25A
330
1D
100
AcDbEntity
  8
4
100
AcDbLine
 10
31.974961264
 20
8.645801054
 30
0.0
 11
31.974961264
 21
-5.329160211
 31
0.0
  0
LINE
  5
25B
330
1D
100
AcDbEntity
  8
4
100
AcDbLine
 10
48.529160211
 20
26.759590951
 30
0.0
 11
0.0
 21
6.545338804326256
 31
0.0
  0
LINE
  5
261
330
1D
100
AcDbEntity
  8
3
100
AcDbLine
 10
50.655469476
 20
24.945646111
 30
0.0
 11
0.0
 21
3.829899459692612
 31
0.0
  0
LINE
  5
262
330
1D
100
AcDbEntity
  8
3
100
AcDbLine
 10
42.747071584
 20
27.044065696
 30
0.0
 11
0.0
 21
9.245206990859607
 31
0.0
  0
LINE
  5
263
330
1D
100
AcDbEntity
  8
3
100
AcDbLine
 10
0.0
 20
-2.796263030584068
 30
0.0
 11
1.6164859
 21
0.0
 31
0.0
  0
LINE
  5
264
330
1D
100
AcDbEntity
  8
3
100
AcDbLine
 10
1.6164859
 20
0.0
 30
0.0
 11
0.0
 21
2.796653297849119
 31
0.0
  0
LINE
  5
271
102
{ACAD_REACTORS
330
285
102
}
330
1D
100
AcDbEntity
  8
CUT
100
AcDbLine
 10
61.85326590700001
 20
38.092249061
 30
0.0
 11
70.418420936
 21
42.456400062
 31
0.0
  0
ARC
  5
272
102
{ACAD_REACTORS
330
285
102
}
330
1D
100
AcDbEntity
  8
CUT
100
AcDbCircle
 10
70.600000526
 20
42.100000526
 30
0.0
 40
0.399999474
100
AcDbArc
 50
357.000002303
 51
117.0000396709996
  0
LINE
  5
273
102
{ACAD_REACTORS
330
285
102
}
330
1D
100
AcDbEntity
  8
CUT
100
AcDbLine
 10
70.999445106
 20
42.079080726
 30
0.0
 11
70.496347572
 21
32.479364539
 31
0.0
  0
ARC
  5
274
102
{ACAD_REACTORS
330
285
102
}
330
1D
100
AcDbEntity
  8
CUT
100
AcDbCircle
 10
70.096902992
 20
32.500299598
 30
0.0
 40
0.400000011
100
AcDbArc
 50
236.9998807779991
 51
357.0000023029999
  0
ARC
  5
275
102
{ACAD_REACTORS
330
285
102
}
330
1D
100
AcDbEntity
  8
CUT
100
AcDbCircle
 10
62.034860755
 20
37.735849525
 30
0.0
 40
0.400001228
100
AcDbArc
 50
117.0000128490006
 51
236.9999880659998
  0
LINE
  5
276
102
{ACAD_REACTORS
330
285
102
}
330
1D
100
AcDbEntity
  8
CUT
100
AcDbLine
 10
69.87905326
 20
32.164835121
 30
0.0
 11
61.81701102400001
 21
37.400385047
 31
0.0
  0
LINE
  5
278
330
1D
100
AcDbEntity
  8
1
100
AcDbLine
 10
69.975885536
 20
29.999994422
 30
0.0
 11
70.08124925129387
 21
32.1006060038533
 31
0.0
  0
HATCH
  5
285
330
1D
100
AcDbEntity
  8
7
100
AcDbHatch
 10
0.0
 20
0.0
 30
0.0
210
0.0
220
0.0
230
1.0
  2
ANSI31
 70
     0
 71
     1
 91
        2
 92
        7
 72
     1
 73
     1
 93
        6
 10
70.49635300629615
 20
32.47936505798729
 42
0.0
 10
70.9994501380981
 20
42.07906982181559
 42
0.5773508965158315
 10
70.41840847260059
 20
42.45640192145301
 42
0.0
 10
61.85326441500827
 20
38.0922521563302
 42
0.5773551105062825
 10
61.81700605772738
 20
37.40038149673336
 42
0.0
 10
69.8790483204667
 20
32.16483264143605
 42
0.5773548704399379
 97
        6
330
273
330
272
330
271
330
275
330
276
330
274
 92
       22
 72
     1
 73
     1
 93
        2
 10
65.67727867299999
 20
37.445383216
 42
1.0
 10
69.477266445
 20
37.445383216
 42
1.0
 97
        1
330
C3
 75
     0
 76
     1
 52
0.0
 41
1.0
 77
     0
 78
     1
 53
45.0
 43
-20.19011700584406
 44
-7.632001764723462
 45
-0.0883883476483184
 46
0.0883883476483184
 79
     0
 47
0.0
 98
        2
 10
68.7225423942924
 20
35.54989751659129
 10
68.7225423942924
 20
35.54989751659129
1001
ACAD
1010
0.0
1020
0.0
1030
0.0
  0
LINE
  5
299
330
1D
100
AcDbEntity
  8
NOCUT
100
AcDbLine
 10
60.463712426
 20
29.999994422
 30
0.0
 11
69.975885536
 21
29.999994422
 31
0.0
  0
LINE
  5
29A
330
1D
100
AcDbEntity
  8
NOCUT
100
AcDbLine
 10
69.975885536
 20
29.999994422
 30
0.0
 11
70.58175474545561
 21
42.07906618708746
 31
0.0
  0
LINE
  5
29E
330
1D
100
AcDbEntity
  8
1
100
AcDbLine
 10
69.434106971
 20
41.954874183
 30
0.0
 11
69.43412089799774
 21
41.95487569010157
 31
0.0
  0
LINE
  5
2A0
330
1D
100
AcDbEntity
  8
NOCUT
100
AcDbLine
 10
70.58175474545561
 20
42.07906618708746
 30
0.0
 11
69.434106971
 21
41.954874183
 31
0.0
  0
LINE
  5
2A1
330
1D
100
AcDbEntity
  8
NOCUT
100
AcDbLine
 10
69.434106971
 20
41.954874183
 30
0.0
 11
69.020776893
 21
41.744272376
 31
0.0
  0
ENDSEC
  0
SECTION
  2
OBJECTS
  0
DICTIONARY
  5
C
330
0
100
AcDbDictionary
281
     1
  3
ACAD_DETAILVIEWSTYLE
350
1A3
  3
ACAD_GROUP
350
D
  3
ACAD_LAYOUT
350
1A
  3
ACAD_MLINESTYLE
350
17
  3
ACAD_PLOTSETTINGS
350
19
  3
ACAD_PLOTSTYLENAME
350
E
  3
ACAD_SCALELIST
350
101
  3
ACAD_SECTIONVIEWSTYLE
350
1A4
  3
AcDbVariableDictionary
350
143
  3
APPDATA
350
191
  3
DWGPROPS
350
2E5
  0
DICTIONARY
  5
192
330
2
100
AcDbDictionary
280
     1
281
     1
  3
ACAD_LAYERSTATES
360
193
  3
ACLYDICTIONARY
360
27F
  0
DICTIONARY
  5
282
330
1D
100
AcDbDictionary
280
     1
281
     1
  3
ACAD_SORTENTS
360
283
  0
DICTIONARY
  5
1A3
102
{ACAD_REACTORS
330
C
102
}
330
C
100
AcDbDictionary
281
     1
  0
DICTIONARY
  5
D
102
{ACAD_REACTORS
330
C
102
}
330
C
100
AcDbDictionary
281
     1
  0
DICTIONARY
  5
1A
102
{ACAD_REACTORS
330
C
102
}
330
C
100
AcDbDictionary
281
     1
  3
Layout1
350
1C
  3
Model
350
1E
  0
DICTIONARY
  5
17
102
{ACAD_REACTORS
330
C
102
}
330
C
100
AcDbDictionary
281
     1
  3
Standard
350
18
  0
DICTIONARY
  5
19
102
{ACAD_REACTORS
330
C
102
}
330
C
100
AcDbDictionary
281
     1
  0
ACDBDICTIONARYWDFLT
  5
E
102
{ACAD_REACTORS
330
C
102
}
330
C
100
AcDbDictionary
281
     1
  3
Normal
350
F
100
AcDbDictionaryWithDefault
340
F
  0
DICTIONARY
  5
101
102
{ACAD_REACTORS
330
C
102
}
330
C
100
AcDbDictionary
281
     1
  3
A0
350
102
  3
A1
350
103
  3
A2
350
104
  3
A3
350
105
  3
A4
350
106
  3
A5
350
107
  3
A6
350
108
  3
A7
350
109
  3
A8
350
10A
  3
A9
350
10B
  3
B0
350
10C
  3
B1
350
10D
  3
B2
350
10E
  3
B3
350
10F
  3
B4
350
110
  3
B5
350
111
  3
B6
350
112
  3
B7
350
113
  3
B8
350
114
  3
B9
350
115
  3
C0
350
116
  3
C1
350
117
  3
C2
350
118
  3
C3
350
119
  3
C4
350
11A
  3
C5
350
11B
  3
C6
350
11C
  3
C7
350
11D
  3
C8
350
11E
  3
C9
350
11F
  3
D0
350
120
  3
D1
350
121
  3
D2
350
122
  0
DICTIONARY
  5
1A4
102
{ACAD_REACTORS
330
C
102
}
330
C
100
AcDbDictionary
281
     1
  0
DICTIONARY
  5
143
102
{ACAD_REACTORS
330
C
102
}
330
C
100
AcDbDictionary
281
     1
  3
DIMASSOC
350
147
  3
HIDETEXT
350
148
  0
DICTIONARY
  5
191
102
{ACAD_REACTORS
330
C
102
}
330
C
100
AcDbDictionary
281
     1
  0
XRECORD
  5
2E5
102
{ACAD_REACTORS
330
C
102
}
330
C
100
AcDbXrecord
280
     1
  1
DWGPROPS COOKIE
  2

  3

  4

  6

  7

  8
matthias.ochs
  9

300
=
301
=
302
=
303
=
304
=
305
=
306
=
307
=
308
=
309
=
 40
0.0
 41
2458327.46598132
 42
2458589.507994884
  1

 90
        0
  0
DICTIONARY
  5
193
102
{ACAD_REACTORS
330
192
102
}
330
192
100
AcDbDictionary
281
     1
  0
DICTIONARY
  5
27F
102
{ACAD_REACTORS
330
192
102
}
330
192
100
AcDbDictionary
281
     1
1001
ACAD
1000
<All
  0
SORTENTSTABLE
  5
283
102
{ACAD_REACTORS
330
282
102
}
330
282
100
AcDbSortentsTable
330
1D
331
0
  5
1AA
331
C3
  5
C6
331
C4
  5
C7
331
C5
  5
C8
331
C6
  5
C9
331
C7
  5
CA
331
C8
  5
CB
331
C9
  5
CC
331
CA
  5
CD
331
CB
  5
CE
331
CC
  5
CF
331
CD
  5
D0
331
CE
  5
D1
331
CF
  5
D2
331
D0
  5
D3
331
D1
  5
D4
331
D2
  5
D5
331
D3
  5
D6
331
D4
  5
D7
331
D5
  5
D8
331
D6
  5
D9
331
D7
  5
DA
331
D8
  5
DB
331
D9
  5
DC
331
DA
  5
DD
331
DB
  5
DE
331
DC
  5
DF
331
DD
  5
E0
331
DE
  5
E1
331
DF
  5
E2
331
E0
  5
E3
331
E1
  5
E4
331
E2
  5
E5
331
E3
  5
E6
331
E4
  5
E7
331
E5
  5
E8
331
E6
  5
E9
331
E7
  5
EA
331
E8
  5
EB
331
E9
  5
EC
331
EA
  5
ED
331
EB
  5
EE
331
EC
  5
EF
331
ED
  5
F0
331
EE
  5
F1
331
EF
  5
F2
331
F0
  5
F3
331
F1
  5
F4
331
F2
  5
F5
331
F3
  5
F6
331
F4
  5
F7
331
F5
  5
F8
331
F6
  5
F9
331
F7
  5
FA
331
F8
  5
19D
331
F9
  5
19E
331
FA
  5
19F
331
19D
  5
1A5
331
19E
  5
1A6
331
19F
  5
1A7
331
1A5
  5
1A8
331
1A6
  5
1A9
331
1AC
  5
1AF
331
1AD
  5
1B0
331
1AE
  5
1B1
331
1AF
  5
1B2
331
1B0
  5
1B3
331
1B1
  5
1B4
331
1B2
  5
1B5
331
1B3
  5
1B6
331
1B4
  5
1B7
331
1B5
  5
1B8
331
1B6
  5
1B9
331
1B7
  5
1BA
331
1B8
  5
1BB
331
1B9
  5
1BC
331
1BA
  5
1BD
331
1BB
  5
1C2
331
1BC
  5
1C3
331
1BD
  5
1C5
331
1C2
  5
1C6
331
1C5
  5
1C8
331
1C6
  5
1E1
331
1C7
  5
1E6
331
1C8
  5
229
331
1E1
  5
24A
331
1E6
  5
24D
331
229
  5
24E
331
24A
  5
24F
331
24D
  5
250
331
24E
  5
259
331
24F
  5
25A
331
250
  5
25B
331
259
  5
261
331
25A
  5
262
331
25B
  5
263
331
261
  5
264
331
262
  5
271
331
263
  5
272
331
264
  5
273
331
271
  5
274
331
272
  5
275
331
273
  5
276
331
274
  5
278
331
275
  5
281
331
276
  5
284
331
278
  5
285
331
285
  5
C5
  0
LAYOUT
  5
1C
102
{ACAD_REACTORS
330
1A
102
}
330
1A
100
AcDbPlotSettings
  1

  2
none_device
  4

  6

 40
0.0
 41
0.0
 42
0.0
 43
0.0
 44
0.0
 45
0.0
 46
0.0
 47
0.0
 48
0.0
 49
0.0
140
0.0
141
0.0
142
1.0
143
1.0
 70
   688
 72
     0
 73
     0
 74
     5
  7

 75
    16
147
1.0
148
0.0
149
0.0
100
AcDbLayout
  1
Layout1
 70
     1
 71
     1
 10
0.0
 20
0.0
 11
12.0
 21
9.0
 12
0.0
 22
0.0
 32
0.0
 14
1.000000000000000E+20
 24
1.000000000000000E+20
 34
1.000000000000000E+20
 15
-1.000000000000000E+20
 25
-1.000000000000000E+20
 35
-1.000000000000000E+20
146
0.0
 13
0.0
 23
0.0
 33
0.0
 16
1.0
 26
0.0
 36
0.0
 17
0.0
 27
1.0
 37
0.0
 76
     0
330
1B
  0
LAYOUT
  5
1E
102
{ACAD_REACTORS
330
1A
102
}
330
1A
100
AcDbPlotSettings
  1

  2
none_device
  4

  6

 40
0.0
 41
0.0
 42
0.0
 43
0.0
 44
0.0
 45
0.0
 46
0.0
 47
0.0
 48
0.0
 49
0.0
140
0.0
141
0.0
142
1.0
143
1.0
 70
  1712
 72
     0
 73
     0
 74
     0
  7

 75
     0
147
1.0
148
0.0
149
0.0
100
AcDbLayout
  1
Model
 70
     1
 71
     0
 10
0.0
 20
0.0
 11
12.0
 21
9.0
 12
0.0
 22
0.0
 32
0.0
 14
-80.72765243097223
 24
-56.70685228075713
 34
0.0
 15
104.1281357203787
 25
78.96494082261235
 35
0.0
146
0.0
 13
0.0
 23
0.0
 33
0.0
 16
1.0
 26
0.0
 36
0.0
 17
0.0
 27
1.0
 37
0.0
 76
     0
330
1D
331
FB
  0
MLINESTYLE
  5
18
102
{ACAD_REACTORS
330
17
102
}
330
17
100
AcDbMlineStyle
  2
Standard
 70
     0
  3

 62
   256
 51
90.0
 52
90.0
 71
     2
 49
0.5
 62
   256
  6
BYLAYER
 49
-0.5
 62
   256
  6
BYLAYER
  0
ACDBPLACEHOLDER
  5
F
102
{ACAD_REACTORS
330
E
102
}
330
E
  0
SCALE
  5
102
102
{ACAD_REACTORS
330
101
102
}
330
101
100
AcDbScale
 70
     0
300
1:1
140
1.0
141
1.0
290
     1
  0
SCALE
  5
103
102
{ACAD_REACTORS
330
101
102
}
330
101
100
AcDbScale
 70
     0
300
1:2
140
1.0
141
2.0
290
     0
  0
SCALE
  5
104
102
{ACAD_REACTORS
330
101
102
}
330
101
100
AcDbScale
 70
     0
300
1:4
140
1.0
141
4.0
290
     0
  0
SCALE
  5
105
102
{ACAD_REACTORS
330
101
102
}
330
101
100
AcDbScale
 70
     0
300
1:5
140
1.0
141
5.0
290
     0
  0
SCALE
  5
106
102
{ACAD_REACTORS
330
101
102
}
330
101
100
AcDbScale
 70
     0
300
1:8
140
1.0
141
8.0
290
     0
  0
SCALE
  5
107
102
{ACAD_REACTORS
330
101
102
}
330
101
100
AcDbScale
 70
     0
300
1:10
140
1.0
141
10.0
290
     0
  0
SCALE
  5
108
102
{ACAD_REACTORS
330
101
102
}
330
101
100
AcDbScale
 70
     0
300
1:16
140
1.0
141
16.0
290
     0
  0
SCALE
  5
109
102
{ACAD_REACTORS
330
101
102
}
330
101
100
AcDbScale
 70
     0
300
1:20
140
1.0
141
20.0
290
     0
  0
SCALE
  5
10A
102
{ACAD_REACTORS
330
101
102
}
330
101
100
AcDbScale
 70
     0
300
1:30
140
1.0
141
30.0
290
     0
  0
SCALE
  5
10B
102
{ACAD_REACTORS
330
101
102
}
330
101
100
AcDbScale
 70
     0
300
1:40
140
1.0
141
40.0
290
     0
  0
SCALE
  5
10C
102
{ACAD_REACTORS
330
101
102
}
330
101
100
AcDbScale
 70
     0
300
1:50
140
1.0
141
50.0
290
     0
  0
SCALE
  5
10D
102
{ACAD_REACTORS
330
101
102
}
330
101
100
AcDbScale
 70
     0
300
1:100
140
1.0
141
100.0
290
     0
  0
SCALE
  5
10E
102
{ACAD_REACTORS
330
101
102
}
330
101
100
AcDbScale
 70
     0
300
2:1
140
2.0
141
1.0
290
     0
  0
SCALE
  5
10F
102
{ACAD_REACTORS
330
101
102
}
330
101
100
AcDbScale
 70
     0
300
4:1
140
4.0
141
1.0
290
     0
  0
SCALE
  5
110
102
{ACAD_REACTORS
330
101
102
}
330
101
100
AcDbScale
 70
     0
300
8:1
140
8.0
141
1.0
290
     0
  0
SCALE
  5
111
102
{ACAD_REACTORS
330
101
102
}
330
101
100
AcDbScale
 70
     0
300
10:1
140
10.0
141
1.0
290
     0
  0
SCALE
  5
112
102
{ACAD_REACTORS
330
101
102
}
330
101
100
AcDbScale
 70
     0
300
100:1
140
100.0
141
1.0
290
     0
  0
SCALE
  5
113
102
{ACAD_REACTORS
330
101
102
}
330
101
100
AcDbScale
 70
     0
300
1/128" = 1'-0"
140
0.0078125
141
12.0
290
     0
  0
SCALE
  5
114
102
{ACAD_REACTORS
330
101
102
}
330
101
100
AcDbScale
 70
     0
300
1/64" = 1'-0"
140
0.015625
141
12.0
290
     0
  0
SCALE
  5
115
102
{ACAD_REACTORS
330
101
102
}
330
101
100
AcDbScale
 70
     0
300
1/32" = 1'-0"
140
0.03125
141
12.0
290
     0
  0
SCALE
  5
116
102
{ACAD_REACTORS
330
101
102
}
330
101
100
AcDbScale
 70
     0
300
1/16" = 1'-0"
140
0.0625
141
12.0
290
     0
  0
SCALE
  5
117
102
{ACAD_REACTORS
330
101
102
}
330
101
100
AcDbScale
 70
     0
300
3/32" = 1'-0"
140
0.09375
141
12.0
290
     0
  0
SCALE
  5
118
102
{ACAD_REACTORS
330
101
102
}
330
101
100
AcDbScale
 70
     0
300
1/8" = 1'-0"
140
0.125
141
12.0
290
     0
  0
SCALE
  5
119
102
{ACAD_REACTORS
330
101
102
}
330
101
100
AcDbScale
 70
     0
300
3/16" = 1'-0"
140
0.1875
141
12.0
290
     0
  0
SCALE
  5
11A
102
{ACAD_REACTORS
330
101
102
}
330
101
100
AcDbScale
 70
     0
300
1/4" = 1'-0"
140
0.25
141
12.0
290
     0
  0
SCALE
  5
11B
102
{ACAD_REACTORS
330
101
102
}
330
101
100
AcDbScale
 70
     0
300
3/8" = 1'-0"
140
0.375
141
12.0
290
     0
  0
SCALE
  5
11C
102
{ACAD_REACTORS
330
101
102
}
330
101
100
AcDbScale
 70
     0
300
1/2" = 1'-0"
140
0.5
141
12.0
290
     0
  0
SCALE
  5
11D
102
{ACAD_REACTORS
330
101
102
}
330
101
100
AcDbScale
 70
     0
300
3/4" = 1'-0"
140
0.75
141
12.0
290
     0
  0
SCALE
  5
11E
102
{ACAD_REACTORS
330
101
102
}
330
101
100
AcDbScale
 70
     0
300
1" = 1'-0"
140
1.0
141
12.0
290
     0
  0
SCALE
  5
11F
102
{ACAD_REACTORS
330
101
102
}
330
101
100
AcDbScale
 70
     0
300
1-1/2" = 1'-0"
140
1.5
141
12.0
290
     0
  0
SCALE
  5
120
102
{ACAD_REACTORS
330
101
102
}
330
101
100
AcDbScale
 70
     0
300
3" = 1'-0"
140
3.0
141
12.0
290
     0
  0
SCALE
  5
121
102
{ACAD_REACTORS
330
101
102
}
330
101
100
AcDbScale
 70
     0
300
6" = 1'-0"
140
6.0
141
12.0
290
     0
  0
SCALE
  5
122
102
{ACAD_REACTORS
330
101
102
}
330
101
100
AcDbScale
 70
     0
300
1'-0" = 1'-0"
140
12.0
141
12.0
290
     0
  0
DICTIONARYVAR
  5
147
102
{ACAD_REACTORS
330
143
102
}
330
143
100
DictionaryVariables
280
     0
  1
2
  0
DICTIONARYVAR
  5
148
102
{ACAD_REACTORS
330
143
102
}
330
143
100
DictionaryVariables
280
     0
  1
1
  0
ENDSEC
  0
EOF
