  0
SECTION
  2
HEADER
  9
$ACADVER
  1
AC1015
  9
$ACADMAINTVER
 70
     6
  9
$DWGCODEPAGE
  3
ANSI_1252
  9
$INSBASE
 10
0.0
 20
0.0
 30
0.0
  9
$EXTMIN
 10
-87.15717942894547
 20
-60.29021534539572
 30
0.0
  9
$EXTMAX
 10
95.129517193631
 20
58.51170506035685
 30
0.0
  9
$LIMMIN
 10
-64.754020243
 20
-44.930000851
  9
$LIMMAX
 10
87.754019989
 20
49.930000173
  9
$ORTHOMODE
 70
     0
  9
$REGENMODE
 70
     1
  9
$FILLMODE
 70
     1
  9
$QTEXTMODE
 70
     0
  9
$MIRRTEXT
 70
     1
  9
$LTSCALE
 40
1.0
  9
$ATTMODE
 70
     1
  9
$TEXTSIZE
 40
0.2
  9
$TRACEWID
 40
0.05
  9
$TEXTSTYLE
  7
Standard
  9
$CLAYER
  8
1
  9
$CELTYPE
  6
ByLayer
  9
$CECOLOR
 62
   256
  9
$CELTSCALE
 40
1.0
  9
$DISPSILH
 70
     0
  9
$DIMSCALE
 40
1.0
  9
$DIMASZ
 40
0.18
  9
$DIMEXO
 40
0.0625
  9
$DIMDLI
 40
0.38
  9
$DIMRND
 40
0.0
  9
$DIMDLE
 40
0.0
  9
$DIMEXE
 40
0.18
  9
$DIMTP
 40
0.0
  9
$DIMTM
 40
0.0
  9
$DIMTXT
 40
0.18
  9
$DIMCEN
 40
0.09
  9
$DIMTSZ
 40
0.0
  9
$DIMTOL
 70
     0
  9
$DIMLIM
 70
     0
  9
$DIMTIH
 70
     1
  9
$DIMTOH
 70
     1
  9
$DIMSE1
 70
     0
  9
$DIMSE2
 70
     0
  9
$DIMTAD
 70
     0
  9
$DIMZIN
 70
     0
  9
$DIMBLK
  1

  9
$DIMASO
 70
     1
  9
$DIMSHO
 70
     1
  9
$DIMPOST
  1

  9
$DIMAPOST
  1

  9
$DIMALT
 70
     0
  9
$DIMALTD
 70
     2
  9
$DIMALTF
 40
25.4
  9
$DIMLFAC
 40
1.0
  9
$DIMTOFL
 70
     0
  9
$DIMTVP
 40
0.0
  9
$DIMTIX
 70
     0
  9
$DIMSOXD
 70
     0
  9
$DIMSAH
 70
     0
  9
$DIMBLK1
  1

  9
$DIMBLK2
  1

  9
$DIMSTYLE
  2
Standard
  9
$DIMCLRD
 70
     0
  9
$DIMCLRE
 70
     0
  9
$DIMCLRT
 70
     0
  9
$DIMTFAC
 40
1.0
  9
$DIMGAP
 40
0.09
  9
$DIMJUST
 70
     0
  9
$DIMSD1
 70
     0
  9
$DIMSD2
 70
     0
  9
$DIMTOLJ
 70
     1
  9
$DIMTZIN
 70
     0
  9
$DIMALTZ
 70
     0
  9
$DIMALTTZ
 70
     0
  9
$DIMUPT
 70
     0
  9
$DIMDEC
 70
     4
  9
$DIMTDEC
 70
     4
  9
$DIMALTU
 70
     2
  9
$DIMALTTD
 70
     2
  9
$DIMTXSTY
  7
Standard
  9
$DIMAUNIT
 70
     0
  9
$DIMADEC
 70
     0
  9
$DIMALTRND
 40
0.0
  9
$DIMAZIN
 70
     0
  9
$DIMDSEP
 70
    46
  9
$DIMATFIT
 70
     3
  9
$DIMFRAC
 70
     0
  9
$DIMLDRBLK
  1

  9
$DIMLUNIT
 70
     2
  9
$DIMLWD
 70
    -2
  9
$DIMLWE
 70
    -2
  9
$DIMTMOVE
 70
     2
  9
$LUNITS
 70
     2
  9
$LUPREC
 70
     4
  9
$SKETCHINC
 40
0.1
  9
$FILLETRAD
 40
0.5
  9
$AUNITS
 70
     2
  9
$AUPREC
 70
     0
  9
$MENU
  1
.
  9
$ELEVATION
 40
0.0
  9
$PELEVATION
 40
0.0
  9
$THICKNESS
 40
0.0
  9
$LIMCHECK
 70
     0
  9
$CHAMFERA
 40
0.5
  9
$CHAMFERB
 40
0.5
  9
$CHAMFERC
 40
1.0
  9
$CHAMFERD
 40
0.0
  9
$SKPOLY
 70
     0
  9
$TDCREATE
 40
2458327.549314259
  9
$TDUCREATE
 40
2458327.465980926
  9
$TDUPDATE
 40
2458589.591175625
  9
$TDUUPDATE
 40
2458589.507842292
  9
$TDINDWG
 40
0.0125835764
  9
$TDUSRTIMER
 40
0.0001658681
  9
$USRTIMER
 70
     1
  9
$ANGBASE
 50
0.0
  9
$ANGDIR
 70
     0
  9
$PDMODE
 70
     0
  9
$PDSIZE
 40
0.0
  9
$PLINEWID
 40
0.0
  9
$SPLFRAME
 70
     0
  9
$SPLINETYPE
 70
     6
  9
$SPLINESEGS
 70
     8
  9
$HANDSEED
  5
284
  9
$SURFTAB1
 70
     6
  9
$SURFTAB2
 70
     6
  9
$SURFTYPE
 70
     6
  9
$SURFU
 70
     6
  9
$SURFV
 70
     6
  9
$UCSBASE
  2

  9
$UCSNAME
  2

  9
$UCSORG
 10
0.0
 20
0.0
 30
0.0
  9
$UCSXDIR
 10
1.0
 20
0.0
 30
0.0
  9
$UCSYDIR
 10
0.0
 20
1.0
 30
0.0
  9
$UCSORTHOREF
  2

  9
$UCSORTHOVIEW
 70
     0
  9
$UCSORGTOP
 10
0.0
 20
0.0
 30
0.0
  9
$UCSORGBOTTOM
 10
0.0
 20
0.0
 30
0.0
  9
$UCSORGLEFT
 10
0.0
 20
0.0
 30
0.0
  9
$UCSORGRIGHT
 10
0.0
 20
0.0
 30
0.0
  9
$UCSORGFRONT
 10
0.0
 20
0.0
 30
0.0
  9
$UCSORGBACK
 10
0.0
 20
0.0
 30
0.0
  9
$PUCSBASE
  2

  9
$PUCSNAME
  2

  9
$PUCSORG
 10
0.0
 20
0.0
 30
0.0
  9
$PUCSXDIR
 10
1.0
 20
0.0
 30
0.0
  9
$PUCSYDIR
 10
0.0
 20
1.0
 30
0.0
  9
$PUCSORTHOREF
  2

  9
$PUCSORTHOVIEW
 70
     0
  9
$PUCSORGTOP
 10
0.0
 20
0.0
 30
0.0
  9
$PUCSORGBOTTOM
 10
0.0
 20
0.0
 30
0.0
  9
$PUCSORGLEFT
 10
0.0
 20
0.0
 30
0.0
  9
$PUCSORGRIGHT
 10
0.0
 20
0.0
 30
0.0
  9
$PUCSORGFRONT
 10
0.0
 20
0.0
 30
0.0
  9
$PUCSORGBACK
 10
0.0
 20
0.0
 30
0.0
  9
$USERI1
 70
     0
  9
$USERI2
 70
     0
  9
$USERI3
 70
     0
  9
$USERI4
 70
     0
  9
$USERI5
 70
     0
  9
$USERR1
 40
0.0
  9
$USERR2
 40
0.0
  9
$USERR3
 40
0.0
  9
$USERR4
 40
0.0
  9
$USERR5
 40
0.0
  9
$WORLDVIEW
 70
     1
  9
$SHADEDGE
 70
     3
  9
$SHADEDIF
 70
    70
  9
$TILEMODE
 70
     1
  9
$MAXACTVP
 70
    64
  9
$PINSBASE
 10
0.0
 20
0.0
 30
0.0
  9
$PLIMCHECK
 70
     0
  9
$PEXTMIN
 10
1.000000000000000E+20
 20
1.000000000000000E+20
 30
1.000000000000000E+20
  9
$PEXTMAX
 10
-1.000000000000000E+20
 20
-1.000000000000000E+20
 30
-1.000000000000000E+20
  9
$PLIMMIN
 10
0.0
 20
0.0
  9
$PLIMMAX
 10
0.0
 20
0.0
  9
$UNITMODE
 70
     0
  9
$VISRETAIN
 70
     1
  9
$PLINEGEN
 70
     0
  9
$PSLTSCALE
 70
     1
  9
$TREEDEPTH
 70
  3020
  9
$CMLSTYLE
  2
Standard
  9
$CMLJUST
 70
     0
  9
$CMLSCALE
 40
1.0
  9
$PROXYGRAPHICS
 70
     1
  9
$MEASUREMENT
 70
     0
  9
$CELWEIGHT
370
    -1
  9
$ENDCAPS
280
     0
  9
$JOINSTYLE
280
     0
  9
$LWDISPLAY
290
     0
  9
$INSUNITS
 70
     0
  9
$HYPERLINKBASE
  1

  9
$STYLESHEET
  1

  9
$XEDIT
290
     1
  9
$CEPSNTYPE
380
     0
  9
$PSTYLEMODE
290
     1
  9
$FINGERPRINTGUID
  2
{510A921A-A93E-419F-9EBC-F318C3BC8DC0}
  9
$VERSIONGUID
  2
{FAEB1C32-E019-11D5-929B-00C0DF256EC4}
  9
$EXTNAMES
290
     1
  9
$PSVPSCALE
 40
0.0
  9
$OLESTARTUP
290
     0
  0
ENDSEC
  0
SECTION
  2
CLASSES
  0
CLASS
  1
ACDBDICTIONARYWDFLT
  2
AcDbDictionaryWithDefault
  3
ObjectDBX Classes
 90
        0
280
     0
281
     0
  0
CLASS
  1
SCALE
  2
AcDbScale
  3
ObjectDBX Classes
 90
     1153
280
     0
281
     0
  0
CLASS
  1
VISUALSTYLE
  2
AcDbVisualStyle
  3
ObjectDBX Classes
 90
     4095
280
     0
281
     0
  0
CLASS
  1
MATERIAL
  2
AcDbMaterial
  3
ObjectDBX Classes
 90
     1153
280
     0
281
     0
  0
CLASS
  1
DICTIONARYVAR
  2
AcDbDictionaryVar
  3
ObjectDBX Classes
 90
        0
280
     0
281
     0
  0
CLASS
  1
ACDBPLACEHOLDER
  2
AcDbPlaceHolder
  3
ObjectDBX Classes
 90
        0
280
     0
281
     0
  0
CLASS
  1
LAYOUT
  2
AcDbLayout
  3
ObjectDBX Classes
 90
        0
280
     0
281
     0
  0
CLASS
  1
TABLESTYLE
  2
AcDbTableStyle
  3
ObjectDBX Classes
 90
     4095
280
     0
281
     0
  0
CLASS
  1
MLEADERSTYLE
  2
AcDbMLeaderStyle
  3
ACDB_MLEADERSTYLE_CLASS
 90
     4095
280
     0
281
     0
  0
CLASS
  1
SUN
  2
AcDbSun
  3
SCENEOE
 90
     1153
280
     0
281
     0
  0
CLASS
  1
SORTENTSTABLE
  2
AcDbSortentsTable
  3
ObjectDBX Classes
 90
        0
280
     0
281
     0
  0
CLASS
  1
CELLSTYLEMAP
  2
AcDbCellStyleMap
  3
ObjectDBX Classes
 90
     1152
280
     0
281
     0
  0
ENDSEC
  0
SECTION
  2
TABLES
  0
TABLE
  2
VPORT
  5
8
330
0
100
AcDbSymbolTable
 70
     1
  0
VPORT
  5
F1
330
8
100
AcDbSymbolTableRecord
100
AcDbViewportTableRecord
  2
*Active
 70
     0
 10
0.0
 20
0.0
 11
1.0
 21
1.0
 12
47.4331583891145
 22
14.30888941526337
 13
0.0
 23
0.0
 14
0.5
 24
0.5
 15
0.5
 25
0.5
 16
0.0
 26
0.0
 36
1.0
 17
0.0
 27
0.0
 37
0.0
 40
219.5459489098221
 41
1.70021645021645
 42
50.0
 43
0.0
 44
0.0
 50
0.0
 51
0.0
 71
    16
 72
   100
 73
     1
 74
     3
 75
     0
 76
     0
 77
     0
 78
     0
281
     0
 65
     1
110
0.0
120
0.0
130
0.0
111
1.0
121
0.0
131
0.0
112
0.0
122
1.0
132
0.0
 79
     0
146
0.0
  0
ENDTAB
  0
TABLE
  2
LTYPE
  5
5
330
0
100
AcDbSymbolTable
 70
     8
  0
LTYPE
  5
14
330
5
100
AcDbSymbolTableRecord
100
AcDbLinetypeTableRecord
  2
ByBlock
 70
     0
  3

 72
    65
 73
     0
 40
0.0
  0
LTYPE
  5
15
330
5
100
AcDbSymbolTableRecord
100
AcDbLinetypeTableRecord
  2
ByLayer
 70
     0
  3

 72
    65
 73
     0
 40
0.0
  0
LTYPE
  5
16
330
5
100
AcDbSymbolTableRecord
100
AcDbLinetypeTableRecord
  2
Continuous
 70
     0
  3
Solid line
 72
    65
 73
     0
 40
0.0
  0
LTYPE
  5
20
330
5
100
AcDbSymbolTableRecord
100
AcDbLinetypeTableRecord
  2
PUNKT
 70
     0
  3
..............
 72
    65
 73
     2
 40
1.5
 49
0.7
 74
     0
 49
-0.8
 74
     0
  0
LTYPE
  5
21
330
5
100
AcDbSymbolTableRecord
100
AcDbLinetypeTableRecord
  2
GESTRICHELT
 70
     0
  3
-- -- -- -- --
 72
    65
 73
     7
 40
2.8
 49
0.9
 74
     0
 49
0.0
 74
     0
 49
0.9
 74
     0
 49
0.0
 74
     0
 49
0.2
 74
     0
 49
0.0
 74
     0
 49
-0.8
 74
     0
  0
LTYPE
  5
22
330
5
100
AcDbSymbolTableRecord
100
AcDbLinetypeTableRecord
  2
STRICHPUNKT
 70
     0
  3
--.--.--.--.--
 72
    65
 73
     4
 40
8.8
 49
5.5
 74
     0
 49
-1.3
 74
     0
 49
0.7
 74
     0
 49
-1.3
 74
     0
  0
LTYPE
  5
25
330
5
100
AcDbSymbolTableRecord
100
AcDbLinetypeTableRecord
  2
PHANTOM
 70
     0
  3
--..--..--..--
 72
    65
 73
     6
 40
14.2
 49
7.0
 74
     0
 49
-1.8
 74
     0
 49
0.9
 74
     0
 49
-1.8
 74
     0
 49
0.9
 74
     0
 49
-1.8
 74
     0
  0
LTYPE
  5
169
330
5
100
AcDbSymbolTableRecord
100
AcDbLinetypeTableRecord
  2
DASH
 70
     0
  3
DASH _ _ _ _ _
 72
    65
 73
     2
 40
0.75
 49
0.4
 74
     0
 49
-0.35
 74
     0
  0
LTYPE
  5
16A
330
5
100
AcDbSymbolTableRecord
100
AcDbLinetypeTableRecord
  2
LONGDASH_DASH
 70
     0
  3
LONGDASH_DASH __ . __ . __
 72
    65
 73
     4
 40
0.85
 49
0.4
 74
     0
 49
-0.2
 74
     0
 49
0.05
 74
     0
 49
-0.2
 74
     0
  0
LTYPE
  5
16B
330
5
100
AcDbSymbolTableRecord
100
AcDbLinetypeTableRecord
  2
LONGDASH_DASH_DASH
 70
     0
  3
LONGDASH_DASH_DASH __ . . __ . . __
 72
    65
 73
     6
 40
1.1
 49
0.4
 74
     0
 49
-0.2
 74
     0
 49
0.05
 74
     0
 49
-0.2
 74
     0
 49
0.05
 74
     0
 49
-0.2
 74
     0
  0
ENDTAB
  0
TABLE
  2
LAYER
  5
2
102
{ACAD_XDICTIONARY
360
188
102
}
330
0
100
AcDbSymbolTable
 70
    16
  0
LAYER
  5
133
330
2
100
AcDbSymbolTableRecord
100
AcDbLayerTableRecord
  2
200
 70
     0
 62
     2
  6
Continuous
370
    50
390
F
  0
LAYER
  5
16C
330
2
100
AcDbSymbolTableRecord
100
AcDbLayerTableRecord
  2
0
 70
     0
 62
    -1
  6
Continuous
370
    -3
390
F
  0
LAYER
  5
16D
330
2
100
AcDbSymbolTableRecord
100
AcDbLayerTableRecord
  2
1
 70
     0
 62
     4
  6
Continuous
370
    50
390
F
  0
LAYER
  5
16E
330
2
100
AcDbSymbolTableRecord
100
AcDbLayerTableRecord
  2
2
 70
     0
 62
     7
  6
Continuous
370
    25
390
F
  0
LAYER
  5
16F
330
2
100
AcDbSymbolTableRecord
100
AcDbLayerTableRecord
  2
3
 70
     0
 62
     1
  6
DASH
370
    35
390
F
  0
LAYER
  5
170
330
2
100
AcDbSymbolTableRecord
100
AcDbLayerTableRecord
  2
4
 70
     0
 62
     2
  6
LONGDASH_DASH
370
    25
390
F
  0
LAYER
  5
171
330
2
100
AcDbSymbolTableRecord
100
AcDbLayerTableRecord
  2
6
 70
     0
 62
     5
  6
Continuous
370
    -3
390
F
  0
LAYER
  5
172
330
2
100
AcDbSymbolTableRecord
100
AcDbLayerTableRecord
  2
CUT
 70
     0
 62
     1
  6
Continuous
370
    25
390
F
  0
LAYER
  5
173
330
2
100
AcDbSymbolTableRecord
100
AcDbLayerTableRecord
  2
NOCUT
 70
     0
 62
     7
  6
Continuous
370
    25
390
F
  0
LAYER
  5
174
330
2
100
AcDbSymbolTableRecord
100
AcDbLayerTableRecord
  2
SK1
 70
     0
 62
     4
  6
Continuous
370
    50
390
F
  0
LAYER
  5
175
330
2
100
AcDbSymbolTableRecord
100
AcDbLayerTableRecord
  2
SK2
 70
     0
 62
     7
  6
Continuous
370
    25
390
F
  0
LAYER
  5
176
330
2
100
AcDbSymbolTableRecord
100
AcDbLayerTableRecord
  2
SK3
 70
     0
 62
     1
  6
DASH
370
    35
390
F
  0
LAYER
  5
177
330
2
100
AcDbSymbolTableRecord
100
AcDbLayerTableRecord
  2
SK4
 70
     0
 62
     2
  6
LONGDASH_DASH
370
    25
390
F
  0
LAYER
  5
178
330
2
100
AcDbSymbolTableRecord
100
AcDbLayerTableRecord
  2
SK6
 70
     0
 62
     5
  6
Continuous
370
    -3
390
F
  0
LAYER
  5
179
330
2
100
AcDbSymbolTableRecord
100
AcDbLayerTableRecord
  2
INFTOTAL
 70
     0
 62
     9
  6
Continuous
370
    18
390
F
  0
LAYER
  5
215
330
2
100
AcDbSymbolTableRecord
100
AcDbLayerTableRecord
  2
7
 70
     0
 62
     5
  6
Continuous
370
    -3
390
F
1001
AcAecLayerStandard
1000

1000

  0
ENDTAB
  0
TABLE
  2
STYLE
  5
3
330
0
100
AcDbSymbolTable
 70
     2
  0
STYLE
  5
11
330
3
100
AcDbSymbolTableRecord
100
AcDbTextStyleTableRecord
  2
Standard
 70
     0
 40
0.0
 41
1.0
 50
0.0
 71
     0
 42
0.2
  3
txt
  4

  0
STYLE
  5
132
330
3
100
AcDbSymbolTableRecord
100
AcDbTextStyleTableRecord
  2
BMG_Text
 70
     0
 40
3.5
 41
1.0
 50
0.0
 71
     0
 42
0.2
  3
monos.ttf
  4

1001
ACAD
1000
Monospac821 BT
1071
       49
  0
ENDTAB
  0
TABLE
  2
VIEW
  5
6
330
0
100
AcDbSymbolTable
 70
     0
  0
ENDTAB
  0
TABLE
  2
UCS
  5
7
330
0
100
AcDbSymbolTable
 70
     0
  0
ENDTAB
  0
TABLE
  2
APPID
  5
9
330
0
100
AcDbSymbolTable
 70
     2
  0
APPID
  5
12
330
9
100
AcDbSymbolTableRecord
100
AcDbRegAppTableRecord
  2
ACAD
 70
     0
  0
APPID
  5
216
330
9
100
AcDbSymbolTableRecord
100
AcDbRegAppTableRecord
  2
AcAecLayerStandard
 70
     0
  0
ENDTAB
  0
TABLE
  2
DIMSTYLE
  5
A
330
0
100
AcDbSymbolTable
 70
     1
100
AcDbDimStyleTable
  0
DIMSTYLE
105
28
330
A
100
AcDbSymbolTableRecord
100
AcDbDimStyleTableRecord
  2
Standard
 70
     0
178
     0
340
11
  0
ENDTAB
  0
TABLE
  2
BLOCK_RECORD
  5
1
330
0
100
AcDbSymbolTable
 70
     0
  0
BLOCK_RECORD
  5
1D
102
{ACAD_XDICTIONARY
360
21A
102
}
330
1
100
AcDbSymbolTableRecord
100
AcDbBlockTableRecord
  2
*Model_Space
340
1E
  0
BLOCK_RECORD
  5
1B
330
1
100
AcDbSymbolTableRecord
100
AcDbBlockTableRecord
  2
*Paper_Space
340
1C
  0
ENDTAB
  0
ENDSEC
  0
SECTION
  2
BLOCKS
  0
BLOCK
  5
11B
330
1D
100
AcDbEntity
  8
0
100
AcDbBlockBegin
  2
*Model_Space
 70
     0
 10
0.0
 20
0.0
 30
0.0
  3
*Model_Space
  1

  0
ENDBLK
  5
11C
330
1D
100
AcDbEntity
  8
0
100
AcDbBlockEnd
  0
BLOCK
  5
119
330
1B
100
AcDbEntity
 67
     1
  8
0
100
AcDbBlockBegin
  2
*Paper_Space
 70
     0
 10
0.0
 20
0.0
 30
0.0
  3
*Paper_Space
  1

  0
ENDBLK
  5
11A
330
1B
100
AcDbEntity
 67
     1
  8
0
100
AcDbBlockEnd
  0
ENDSEC
  0
SECTION
  2
ENTITIES
  0
LINE
  5
29
330
1D
100
AcDbEntity
  8
1
100
AcDbLine
 10
28.998574527
 20
-2.352773474
 30
0.0
 11
28.998574527
 21
-31.499917261
 31
0.0
  0
LINE
  5
2A
330
1D
100
AcDbEntity
  8
1
100
AcDbLine
 10
28.998574527
 20
-31.499917261
 30
0.0
 11
1.020762318
 21
-31.499917261
 31
0.0
  0
LINE
  5
2B
330
1D
100
AcDbEntity
  8
1
100
AcDbLine
 10
1.020762318
 20
-31.499917261
 30
0.0
 11
0.510938953
 21
-30.988978308
 31
0.0
  0
LINE
  5
2C
330
1D
100
AcDbEntity
  8
1
100
AcDbLine
 10
0.510938953
 20
-30.988978308
 30
0.0
 11
0.510938953
 21
30.990319802
 31
0.0
  0
LINE
  5
2D
330
1D
100
AcDbEntity
  8
1
100
AcDbLine
 10
0.510938953
 20
30.990319802
 30
0.0
 11
1.020762318
 21
31.500143167
 31
0.0
  0
LINE
  5
2E
330
1D
100
AcDbEntity
  8
1
100
AcDbLine
 10
1.020762318
 20
31.500143167
 30
0.0
 11
30.640135633
 21
31.500143167
 31
0.0
  0
LINE
  5
2F
330
1D
100
AcDbEntity
  8
1
100
AcDbLine
 10
30.640135633
 20
31.500143167
 30
0.0
 11
31.011093895
 21
30.190021692
 31
0.0
  0
LINE
  5
30
330
1D
100
AcDbEntity
  8
1
100
AcDbLine
 10
31.011093895
 20
30.190021692
 30
0.0
 11
67.199668423
 21
20.49556864
 31
0.0
  0
LINE
  5
31
330
1D
100
AcDbEntity
  8
1
100
AcDbLine
 10
67.199668423
 20
20.49556864
 30
0.0
 11
67.199668423
 21
-25.000309885
 31
0.0
  0
LINE
  5
32
330
1D
100
AcDbEntity
  8
1
100
AcDbLine
 10
67.199668423
 20
-25.000309885
 30
0.0
 11
66.009336845
 21
-27.069724202
 31
0.0
  0
LINE
  5
33
330
1D
100
AcDbEntity
  8
1
100
AcDbLine
 10
66.009336845
 20
-27.069724202
 30
0.0
 11
31.49302758
 21
-27.069724202
 31
0.0
  0
LINE
  5
34
330
1D
100
AcDbEntity
  8
1
100
AcDbLine
 10
31.49302758
 20
-27.069724202
 30
0.0
 11
29.508397893
 21
-30.500154943
 31
0.0
  0
LINE
  5
35
330
1D
100
AcDbEntity
  8
1
100
AcDbLine
 10
29.508397893
 20
-30.500154943
 30
0.0
 11
28.998574527
 21
-30.500154943
 31
0.0
  0
LINE
  5
36
330
1D
100
AcDbEntity
  8
SK4
100
AcDbLine
 10
-41.981778742
 20
0.0
 30
0.0
 11
69.19429811
 21
0.0
 31
0.0
  0
LINE
  5
37
330
1D
100
AcDbEntity
  8
SK4
100
AcDbLine
 10
-15.477657267
 20
-6.519491788
 30
0.0
 11
-15.477657267
 21
6.491602107
 31
0.0
  0
LINE
  5
38
330
1D
100
AcDbEntity
  8
SK4
100
AcDbLine
 10
47.990331577
 20
-32.058630307
 30
0.0
 11
47.990331577
 21
31.578927797
 31
0.0
  0
LINE
  5
39
330
1D
100
AcDbEntity
  8
1
100
AcDbLine
 10
63.949922529
 20
-27.069724202
 30
0.0
 11
52.752773474
 21
-30.046110939
 31
0.0
  0
LINE
  5
3A
330
1D
100
AcDbEntity
  8
1
100
AcDbLine
 10
43.256894949
 20
-30.046110939
 30
0.0
 11
52.752773474
 21
-30.046110939
 31
0.0
  0
LINE
  5
3B
330
1D
100
AcDbEntity
  8
1
100
AcDbLine
 10
32.059745894
 20
-27.069724202
 30
0.0
 11
43.256894949
 21
-30.046110939
 31
0.0
  0
LINE
  5
3C
330
1D
100
AcDbEntity
  8
1
100
AcDbLine
 10
28.998574527
 20
31.500143167
 30
0.0
 11
28.998574527
 21
5.641524636
 31
0.0
  0
LINE
  5
3D
330
1D
100
AcDbEntity
  8
SK1
100
AcDbLine
 10
-34.980353269
 20
-18.0
 30
0.0
 11
0.0
 21
-18.0
 31
0.0
  0
LINE
  5
3E
330
1D
100
AcDbEntity
  8
SK1
100
AcDbLine
 10
-34.980353269
 20
18.001115587
 30
0.0
 11
-37.162441896
 21
17.688751162
 31
0.0
  0
LINE
  5
3F
330
1D
100
AcDbEntity
  8
SK1
100
AcDbLine
 10
-38.806817478
 20
17.972110319
 30
0.0
 11
-37.162441896
 21
17.688751162
 31
0.0
  0
LINE
  5
40
330
1D
100
AcDbEntity
  8
SK1
100
AcDbLine
 10
-34.980353269
 20
18.001115587
 30
0.0
 11
-34.980353269
 21
-18.0
 31
0.0
  0
LINE
  5
41
330
1D
100
AcDbEntity
  8
SK1
100
AcDbLine
 10
-38.778927797
 20
17.972110319
 30
0.0
 11
-38.948497056
 21
18.001115587
 31
0.0
  0
LINE
  5
42
330
1D
100
AcDbEntity
  8
SK1
100
AcDbLine
 10
-38.948497056
 20
18.001115587
 30
0.0
 11
-39.345646111
 21
17.916330958
 31
0.0
  0
LINE
  5
43
330
1D
100
AcDbEntity
  8
SK1
100
AcDbLine
 10
-39.345646111
 20
17.916330958
 30
0.0
 11
-39.656894949
 21
17.688751162
 31
0.0
  0
LINE
  5
44
330
1D
100
AcDbEntity
  8
SK1
100
AcDbLine
 10
-39.656894949
 20
17.688751162
 30
0.0
 11
-39.884474744
 21
17.348497056
 31
0.0
  0
LINE
  5
45
330
1D
100
AcDbEntity
  8
SK1
100
AcDbLine
 10
-39.884474744
 20
17.348497056
 30
0.0
 11
-39.940254106
 21
16.980353269
 31
0.0
  0
LINE
  5
46
330
1D
100
AcDbEntity
  8
SK1
100
AcDbLine
 10
-39.997149055
 20
16.980353269
 30
0.0
 11
-39.997149055
 21
-17.00824295
 31
0.0
  0
LINE
  5
47
330
1D
100
AcDbEntity
  8
SK1
100
AcDbLine
 10
-34.980353269
 20
18.001115587
 30
0.0
 11
0.0
 21
18.001115587
 31
0.0
  0
LINE
  5
48
330
1D
100
AcDbEntity
  8
1
100
AcDbLine
 10
0.0
 20
29.084474744
 30
0.0
 11
0.397149055
 21
29.481623799
 31
0.0
  0
LINE
  5
49
330
1D
100
AcDbEntity
  8
SK1
100
AcDbLine
 10
-10.969569259
 20
0.0
 30
0.0
 11
-11.083359157
 21
0.879082739
 31
0.0
  0
LINE
  5
4A
330
1D
100
AcDbEntity
  8
SK1
100
AcDbLine
 10
-11.083359157
 20
0.879082739
 30
0.0
 11
-11.338828633
 21
1.729160211
 31
0.0
  0
LINE
  5
4B
330
1D
100
AcDbEntity
  8
SK1
100
AcDbLine
 10
-11.338828633
 20
1.729160211
 30
0.0
 11
-11.763867369
 21
2.494453052
 31
0.0
  0
LINE
  5
4C
330
1D
100
AcDbEntity
  8
SK1
100
AcDbLine
 10
-11.763867369
 20
2.494453052
 30
0.0
 11
-12.302696002
 21
3.147071584
 31
0.0
  0
LINE
  5
4D
330
1D
100
AcDbEntity
  8
SK1
100
AcDbLine
 10
-12.302696002
 20
3.147071584
 30
0.0
 11
-12.954198946
 21
3.685900217
 31
0.0
  0
LINE
  5
4E
330
1D
100
AcDbEntity
  8
SK1
100
AcDbLine
 10
-12.954198946
 20
3.685900217
 30
0.0
 11
-13.719491788
 21
4.110938953
 31
0.0
  0
LINE
  5
4F
330
1D
100
AcDbEntity
  8
SK1
100
AcDbLine
 10
-13.719491788
 20
4.110938953
 30
0.0
 11
-14.570684847
 21
4.366408429
 31
0.0
  0
LINE
  5
50
330
1D
100
AcDbEntity
  8
SK1
100
AcDbLine
 10
-14.570684847
 20
4.366408429
 30
0.0
 11
-15.448651999
 21
4.479082739
 31
0.0
  0
LINE
  5
51
330
1D
100
AcDbEntity
  8
SK1
100
AcDbLine
 10
-15.448651999
 20
4.479082739
 30
0.0
 11
-16.355624419
 21
4.366408429
 31
0.0
  0
LINE
  5
52
330
1D
100
AcDbEntity
  8
SK1
100
AcDbLine
 10
-16.355624419
 20
4.366408429
 30
0.0
 11
-17.206817478
 21
4.110938953
 31
0.0
  0
LINE
  5
53
330
1D
100
AcDbEntity
  8
SK1
100
AcDbLine
 10
-17.206817478
 20
4.110938953
 30
0.0
 11
-17.972110319
 21
3.685900217
 31
0.0
  0
LINE
  5
54
330
1D
100
AcDbEntity
  8
SK1
100
AcDbLine
 10
-17.972110319
 20
3.685900217
 30
0.0
 11
-18.623613263
 21
3.147071584
 31
0.0
  0
LINE
  5
55
330
1D
100
AcDbEntity
  8
SK1
100
AcDbLine
 10
-18.623613263
 20
3.147071584
 30
0.0
 11
-19.162441896
 21
2.494453052
 31
0.0
  0
LINE
  5
56
330
1D
100
AcDbEntity
  8
SK1
100
AcDbLine
 10
-19.162441896
 20
2.494453052
 30
0.0
 11
-19.587480632
 21
1.729160211
 31
0.0
  0
LINE
  5
57
330
1D
100
AcDbEntity
  8
SK1
100
AcDbLine
 10
-19.587480632
 20
1.729160211
 30
0.0
 11
-19.842950108
 21
0.879082739
 31
0.0
  0
LINE
  5
58
330
1D
100
AcDbEntity
  8
SK1
100
AcDbLine
 10
-19.842950108
 20
0.879082739
 30
0.0
 11
-19.927734738
 21
0.0
 31
0.0
  0
LINE
  5
59
330
1D
100
AcDbEntity
  8
SK1
100
AcDbLine
 10
-19.927734738
 20
0.0
 30
0.0
 11
-19.842950108
 21
-0.90697242
 31
0.0
  0
LINE
  5
5A
330
1D
100
AcDbEntity
  8
SK1
100
AcDbLine
 10
-19.842950108
 20
-0.90697242
 30
0.0
 11
-19.587480632
 21
-1.757049892
 31
0.0
  0
LINE
  5
5B
330
1D
100
AcDbEntity
  8
SK1
100
AcDbLine
 10
-19.587480632
 20
-1.757049892
 30
0.0
 11
-19.162441896
 21
-2.522342733
 31
0.0
  0
LINE
  5
5C
330
1D
100
AcDbEntity
  8
SK1
100
AcDbLine
 10
-19.162441896
 20
-2.522342733
 30
0.0
 11
-18.623613263
 21
-3.174961264
 31
0.0
  0
LINE
  5
5D
330
1D
100
AcDbEntity
  8
SK1
100
AcDbLine
 10
-18.623613263
 20
-3.174961264
 30
0.0
 11
-17.972110319
 21
-3.712674311
 31
0.0
  0
LINE
  5
5E
330
1D
100
AcDbEntity
  8
SK1
100
AcDbLine
 10
-17.972110319
 20
-3.712674311
 30
0.0
 11
-17.206817478
 21
-4.137713046
 31
0.0
  0
LINE
  5
5F
330
1D
100
AcDbEntity
  8
SK1
100
AcDbLine
 10
-17.206817478
 20
-4.137713046
 30
0.0
 11
-16.355624419
 21
-4.393182522
 31
0.0
  0
LINE
  5
60
330
1D
100
AcDbEntity
  8
SK1
100
AcDbLine
 10
-16.355624419
 20
-4.393182522
 30
0.0
 11
-15.448651999
 21
-4.477967152
 31
0.0
  0
LINE
  5
61
330
1D
100
AcDbEntity
  8
SK1
100
AcDbLine
 10
-15.448651999
 20
-4.477967152
 30
0.0
 11
-14.570684847
 21
-4.393182522
 31
0.0
  0
LINE
  5
62
330
1D
100
AcDbEntity
  8
SK1
100
AcDbLine
 10
-14.570684847
 20
-4.393182522
 30
0.0
 11
-13.719491788
 21
-4.137713046
 31
0.0
  0
LINE
  5
63
330
1D
100
AcDbEntity
  8
SK1
100
AcDbLine
 10
-13.719491788
 20
-4.137713046
 30
0.0
 11
-12.954198946
 21
-3.712674311
 31
0.0
  0
LINE
  5
64
330
1D
100
AcDbEntity
  8
SK1
100
AcDbLine
 10
-12.954198946
 20
-3.712674311
 30
0.0
 11
-12.302696002
 21
-3.174961264
 31
0.0
  0
LINE
  5
65
330
1D
100
AcDbEntity
  8
SK1
100
AcDbLine
 10
-12.302696002
 20
-3.174961264
 30
0.0
 11
-11.763867369
 21
-2.522342733
 31
0.0
  0
LINE
  5
66
330
1D
100
AcDbEntity
  8
SK1
100
AcDbLine
 10
-11.763867369
 20
-2.522342733
 30
0.0
 11
-11.338828633
 21
-1.757049892
 31
0.0
  0
LINE
  5
67
330
1D
100
AcDbEntity
  8
SK1
100
AcDbLine
 10
-11.338828633
 20
-1.757049892
 30
0.0
 11
-11.083359157
 21
-0.90697242
 31
0.0
  0
LINE
  5
68
330
1D
100
AcDbEntity
  8
SK1
100
AcDbLine
 10
-11.083359157
 20
-0.90697242
 30
0.0
 11
-10.969569259
 21
0.0
 31
0.0
  0
LINE
  5
69
330
1D
100
AcDbEntity
  8
SK1
100
AcDbLine
 10
-38.806817478
 20
-18.0
 30
0.0
 11
-37.162441896
 21
-17.716640843
 31
0.0
  0
LINE
  5
6A
330
1D
100
AcDbEntity
  8
SK1
100
AcDbLine
 10
-34.980353269
 20
-18.0
 30
0.0
 11
-37.162441896
 21
-17.716640843
 31
0.0
  0
LINE
  5
6B
330
1D
100
AcDbEntity
  8
SK1
100
AcDbLine
 10
-39.940254106
 20
-17.00824295
 30
0.0
 11
-39.884474744
 21
-17.404276418
 31
0.0
  0
LINE
  5
6C
330
1D
100
AcDbEntity
  8
SK1
100
AcDbLine
 10
-39.884474744
 20
-17.404276418
 30
0.0
 11
-39.656894949
 21
-17.716640843
 31
0.0
  0
LINE
  5
6D
330
1D
100
AcDbEntity
  8
SK1
100
AcDbLine
 10
-39.656894949
 20
-17.716640843
 30
0.0
 11
-39.345646111
 21
-17.943105051
 31
0.0
  0
LINE
  5
6E
330
1D
100
AcDbEntity
  8
SK1
100
AcDbLine
 10
-39.345646111
 20
-17.943105051
 30
0.0
 11
-38.948497056
 21
-18.0
 31
0.0
  0
LINE
  5
6F
330
1D
100
AcDbEntity
  8
4
100
AcDbLine
 10
-38.948497056
 20
-18.0
 30
0.0
 11
-38.778927797
 21
-18.0
 31
0.0
  0
LINE
  5
70
330
1D
100
AcDbEntity
  8
1
100
AcDbLine
 10
0.0
 20
29.084474744
 30
0.0
 11
0.0
 21
-29.111248838
 31
0.0
  0
LINE
  5
71
330
1D
100
AcDbEntity
  8
1
100
AcDbLine
 10
0.0
 20
-29.111248838
 30
0.0
 11
0.397149055
 21
-29.507282306
 31
0.0
  0
LINE
  5
72
330
1D
100
AcDbEntity
  8
1
100
AcDbLine
 10
33.448651999
 20
-0.850077471
 30
0.0
 11
30.557049892
 21
-0.850077471
 31
0.0
  0
LINE
  5
73
330
1D
100
AcDbEntity
  8
1
100
AcDbLine
 10
30.557049892
 20
-0.850077471
 30
0.0
 11
29.111248838
 21
1.644375581
 31
0.0
  0
LINE
  5
74
330
1D
100
AcDbEntity
  8
1
100
AcDbLine
 10
29.111248838
 20
1.644375581
 30
0.0
 11
30.557049892
 21
4.138828633
 31
0.0
  0
LINE
  5
75
330
1D
100
AcDbEntity
  8
1
100
AcDbLine
 10
30.557049892
 20
4.138828633
 30
0.0
 11
33.448651999
 21
4.138828633
 31
0.0
  0
LINE
  5
76
330
1D
100
AcDbEntity
  8
1
100
AcDbLine
 10
33.448651999
 20
4.138828633
 30
0.0
 11
34.894453052
 21
1.644375581
 31
0.0
  0
LINE
  5
77
330
1D
100
AcDbEntity
  8
1
100
AcDbLine
 10
34.894453052
 20
1.644375581
 30
0.0
 11
33.448651999
 21
-0.850077471
 31
0.0
  0
LINE
  5
78
330
1D
100
AcDbEntity
  8
1
100
AcDbLine
 10
36.99175705
 20
1.644375581
 30
0.0
 11
36.879082739
 21
2.637248218
 31
0.0
  0
LINE
  5
79
330
1D
100
AcDbEntity
  8
1
100
AcDbLine
 10
36.879082739
 20
2.637248218
 30
0.0
 11
36.595723582
 21
3.572110319
 31
0.0
  0
LINE
  5
7A
330
1D
100
AcDbEntity
  8
1
100
AcDbLine
 10
36.595723582
 20
3.572110319
 30
0.0
 11
36.113789898
 21
4.422187791
 31
0.0
  0
LINE
  5
7B
330
1D
100
AcDbEntity
  8
1
100
AcDbLine
 10
36.113789898
 20
4.422187791
 30
0.0
 11
35.518066315
 21
5.159590951
 31
0.0
  0
LINE
  5
7C
330
1D
100
AcDbEntity
  8
1
100
AcDbLine
 10
35.518066315
 20
5.159590951
 30
0.0
 11
34.780663155
 21
5.755314534
 31
0.0
  0
LINE
  5
7D
330
1D
100
AcDbEntity
  8
1
100
AcDbLine
 10
34.780663155
 20
5.755314534
 30
0.0
 11
33.930585683
 21
6.237248218
 31
0.0
  0
LINE
  5
7E
330
1D
100
AcDbEntity
  8
1
100
AcDbLine
 10
33.930585683
 20
6.237248218
 30
0.0
 11
32.994607995
 21
6.520607375
 31
0.0
  0
LINE
  5
7F
330
1D
100
AcDbEntity
  8
1
100
AcDbLine
 10
32.994607995
 20
6.520607375
 30
0.0
 11
32.002850945
 21
6.633281686
 31
0.0
  0
LINE
  5
80
330
1D
100
AcDbEntity
  8
1
100
AcDbLine
 10
32.002850945
 20
6.633281686
 30
0.0
 11
30.982088627
 21
6.520607375
 31
0.0
  0
LINE
  5
81
330
1D
100
AcDbEntity
  8
1
100
AcDbLine
 10
30.982088627
 20
6.520607375
 30
0.0
 11
30.047226526
 21
6.237248218
 31
0.0
  0
LINE
  5
82
330
1D
100
AcDbEntity
  8
1
100
AcDbLine
 10
30.047226526
 20
6.237248218
 30
0.0
 11
29.197149055
 21
5.755314534
 31
0.0
  0
LINE
  5
83
330
1D
100
AcDbEntity
  8
1
100
AcDbLine
 10
29.197149055
 20
5.755314534
 30
0.0
 11
28.459745894
 21
5.159590951
 31
0.0
  0
LINE
  5
84
330
1D
100
AcDbEntity
  8
1
100
AcDbLine
 10
28.459745894
 20
5.159590951
 30
0.0
 11
27.864022312
 21
4.422187791
 31
0.0
  0
LINE
  5
85
330
1D
100
AcDbEntity
  8
1
100
AcDbLine
 10
27.864022312
 20
4.422187791
 30
0.0
 11
27.382088627
 21
3.572110319
 31
0.0
  0
LINE
  5
86
330
1D
100
AcDbEntity
  8
1
100
AcDbLine
 10
27.382088627
 20
3.572110319
 30
0.0
 11
27.09872947
 21
2.637248218
 31
0.0
  0
LINE
  5
87
330
1D
100
AcDbEntity
  8
1
100
AcDbLine
 10
27.09872947
 20
2.637248218
 30
0.0
 11
27.01394484
 21
1.644375581
 31
0.0
  0
LINE
  5
88
330
1D
100
AcDbEntity
  8
1
100
AcDbLine
 10
27.01394484
 20
1.644375581
 30
0.0
 11
27.09872947
 21
0.623613263
 31
0.0
  0
LINE
  5
89
330
1D
100
AcDbEntity
  8
1
100
AcDbLine
 10
27.09872947
 20
0.623613263
 30
0.0
 11
27.382088627
 21
-0.311248838
 31
0.0
  0
LINE
  5
8A
330
1D
100
AcDbEntity
  8
1
100
AcDbLine
 10
27.382088627
 20
-0.311248838
 30
0.0
 11
27.864022312
 21
-1.161326309
 31
0.0
  0
LINE
  5
8B
330
1D
100
AcDbEntity
  8
1
100
AcDbLine
 10
27.864022312
 20
-1.161326309
 30
0.0
 11
28.459745894
 21
-1.89872947
 31
0.0
  0
LINE
  5
8C
330
1D
100
AcDbEntity
  8
1
100
AcDbLine
 10
28.459745894
 20
-1.89872947
 30
0.0
 11
29.197149055
 21
-2.494453052
 31
0.0
  0
LINE
  5
8D
330
1D
100
AcDbEntity
  8
1
100
AcDbLine
 10
29.197149055
 20
-2.494453052
 30
0.0
 11
30.047226526
 21
-2.976386737
 31
0.0
  0
LINE
  5
8E
330
1D
100
AcDbEntity
  8
1
100
AcDbLine
 10
30.047226526
 20
-2.976386737
 30
0.0
 11
30.982088627
 21
-3.259745894
 31
0.0
  0
LINE
  5
8F
330
1D
100
AcDbEntity
  8
1
100
AcDbLine
 10
30.982088627
 20
-3.259745894
 30
0.0
 11
32.002850945
 21
-3.344530524
 31
0.0
  0
LINE
  5
90
330
1D
100
AcDbEntity
  8
1
100
AcDbLine
 10
32.002850945
 20
-3.344530524
 30
0.0
 11
32.994607995
 21
-3.259745894
 31
0.0
  0
LINE
  5
91
330
1D
100
AcDbEntity
  8
1
100
AcDbLine
 10
32.994607995
 20
-3.259745894
 30
0.0
 11
33.930585683
 21
-2.976386737
 31
0.0
  0
LINE
  5
92
330
1D
100
AcDbEntity
  8
1
100
AcDbLine
 10
33.930585683
 20
-2.976386737
 30
0.0
 11
34.780663155
 21
-2.494453052
 31
0.0
  0
LINE
  5
93
330
1D
100
AcDbEntity
  8
1
100
AcDbLine
 10
34.780663155
 20
-2.494453052
 30
0.0
 11
35.518066315
 21
-1.89872947
 31
0.0
  0
LINE
  5
94
330
1D
100
AcDbEntity
  8
1
100
AcDbLine
 10
35.518066315
 20
-1.89872947
 30
0.0
 11
36.113789898
 21
-1.161326309
 31
0.0
  0
LINE
  5
95
330
1D
100
AcDbEntity
  8
1
100
AcDbLine
 10
36.113789898
 20
-1.161326309
 30
0.0
 11
36.595723582
 21
-0.311248838
 31
0.0
  0
LINE
  5
96
330
1D
100
AcDbEntity
  8
1
100
AcDbLine
 10
36.595723582
 20
-0.311248838
 30
0.0
 11
36.879082739
 21
0.623613263
 31
0.0
  0
LINE
  5
97
330
1D
100
AcDbEntity
  8
1
100
AcDbLine
 10
36.879082739
 20
0.623613263
 30
0.0
 11
36.99175705
 21
1.644375581
 31
0.0
  0
LINE
  5
98
330
1D
100
AcDbEntity
  8
SK4
100
AcDbLine
 10
32.002850945
 20
-5.357049892
 30
0.0
 11
32.002850945
 21
8.645801054
 31
0.0
  0
LINE
  5
99
330
1D
100
AcDbEntity
  8
SK4
100
AcDbLine
 10
39.004276418
 20
1.644375581
 30
0.0
 11
25.001425473
 21
1.644375581
 31
0.0
  0
LINE
  5
9A
330
1D
100
AcDbEntity
  8
SK4
100
AcDbLine
 10
-3.570994732
 20
5.045801054
 30
0.0
 11
48.558165479
 21
26.731701271
 31
0.0
  0
LINE
  5
9B
330
1D
100
AcDbEntity
  8
3
100
AcDbLine
 10
60.491602107
 20
-27.069724202
 30
0.0
 11
60.491602107
 21
22.281623799
 31
0.0
  0
LINE
  5
9C
330
1D
100
AcDbEntity
  8
3
100
AcDbLine
 10
35.490176635
 20
28.970684847
 30
0.0
 11
35.490176635
 21
-27.069724202
 31
0.0
  0
LINE
  5
9D
330
1D
100
AcDbEntity
  8
3
100
AcDbLine
 10
0.0
 20
9.244444910707939
 30
0.0
 11
42.774961264
 21
27.044065696
 31
0.0
  0
LINE
  5
9E
330
1D
100
AcDbEntity
  8
3
100
AcDbLine
 10
0.0
 20
3.829527257158415
 30
0.0
 11
50.683359157
 21
24.91775643
 31
0.0
  0
LINE
  5
9F
330
1D
100
AcDbEntity
  8
3
100
AcDbLine
 10
0.0
 20
2.796653297849121
 30
0.0
 11
1.6164859
 21
0.0
 31
0.0
  0
LINE
  5
A0
330
1D
100
AcDbEntity
  8
3
100
AcDbLine
 10
0.0
 20
-2.806409972828135
 30
0.0
 11
1.6164859
 21
0.0
 31
0.0
  0
LINE
  5
A1
330
1D
100
AcDbEntity
  8
SK3
100
AcDbLine
 10
-3.004276418
 20
7.99429811
 30
0.0
 11
-3.004276418
 21
-8.022187791
 31
0.0
  0
LINE
  5
A2
330
1D
100
AcDbEntity
  8
SK3
100
AcDbLine
 10
-39.997149055
 20
7.99429811
 30
0.0
 11
-3.004276418
 21
7.99429811
 31
0.0
  0
LINE
  5
A3
330
1D
100
AcDbEntity
  8
SK3
100
AcDbLine
 10
-39.997149055
 20
-8.022187791
 30
0.0
 11
-3.004276418
 21
-8.022187791
 31
0.0
  0
LINE
  5
A4
330
1D
100
AcDbEntity
  8
1
100
AcDbLine
 10
61.853265907
 20
29.592249061
 30
0.0
 11
70.418420936
 21
33.956400062
 31
0.0
  0
ARC
  5
A5
330
1D
100
AcDbEntity
  8
1
100
AcDbCircle
 10
70.600000526
 20
33.600000526
 30
0.0
 40
0.399999474
100
AcDbArc
 50
357.000002303
 51
117.000039671
  0
LINE
  5
A6
330
1D
100
AcDbEntity
  8
1
100
AcDbLine
 10
70.999445106
 20
33.579080726
 30
0.0
 11
70.496347572
 21
23.979364539
 31
0.0
  0
ARC
  5
A7
330
1D
100
AcDbEntity
  8
1
100
AcDbCircle
 10
70.096902992
 20
24.000299598
 30
0.0
 40
0.400000011
100
AcDbArc
 50
236.999880778
 51
357.000002303
  0
LINE
  5
A8
330
1D
100
AcDbEntity
  8
1
100
AcDbLine
 10
69.020776893
 20
33.244272376
 30
0.0
 11
68.920053626
 21
33.441965247
 31
0.0
  0
LINE
  5
A9
330
1D
100
AcDbEntity
  8
1
100
AcDbLine
 10
70.085977699
 20
23.600458289
 30
0.0
 11
69.975885536
 21
21.499994422
 31
0.0
  0
ARC
  5
AA
330
1D
100
AcDbEntity
  8
1
100
AcDbCircle
 10
62.624048377
 20
29.204965736
 30
0.0
 40
1.60000013
100
AcDbArc
 50
87.00000341899998
 51
267.000003419
  0
LINE
  5
AB
330
1D
100
AcDbEntity
  8
1
100
AcDbLine
 10
62.540323402
 20
27.607156898
 30
0.0
 11
63.919748451
 21
27.534845497
 31
0.0
  0
LINE
  5
AC
330
1D
100
AcDbEntity
  8
1
100
AcDbLine
 10
62.707788612
 20
30.802789832
 30
0.0
 11
64.087198402
 21
30.730478431
 31
0.0
  0
ARC
  5
AD
330
1D
100
AcDbEntity
  8
1
100
AcDbCircle
 10
62.034860755
 20
29.235849525
 30
0.0
 40
0.400001228
100
AcDbArc
 50
117.000012849
 51
236.999988066
  0
LINE
  5
AE
330
1D
100
AcDbEntity
  8
1
100
AcDbLine
 10
69.87905326
 20
23.664835121
 30
0.0
 11
61.817011024
 21
28.900385047
 31
0.0
  0
LINE
  5
AF
330
1D
100
AcDbEntity
  8
1
100
AcDbLine
 10
68.920053626
 20
33.441965247
 30
0.0
 11
60.200014259
 21
31.90438285
 31
0.0
  0
LINE
  5
B1
330
1D
100
AcDbEntity
  8
1
100
AcDbLine
 10
69.975885536
 20
21.499994422
 30
0.0
 11
63.459195719
 21
21.499994422
 31
0.0
  0
LINE
  5
B2
330
1D
100
AcDbEntity
  8
1
100
AcDbLine
 10
59.100519325
 20
29.999994422
 30
0.0
 11
60.199991371
 21
31.904352332
 31
0.0
  0
LINE
  5
B3
330
1D
100
AcDbEntity
  8
1
100
AcDbLine
 10
59.100519325
 20
29.999994422
 30
0.0
 11
53.499994422
 21
29.999994422
 31
0.0
  0
ARC
  5
B4
330
1D
100
AcDbEntity
  8
1
100
AcDbCircle
 10
47.999994422
 20
58.826425697
 30
0.0
 40
29.346435164
100
AcDbArc
 50
259.1979294689999
 51
280.80204165
  0
LINE
  5
B5
330
1D
100
AcDbEntity
  8
1
100
AcDbLine
 10
58.330438092
 20
22.873542985
 30
0.0
 11
56.406732704
 21
29.999994422
 31
0.0
  0
LINE
  5
B6
330
1D
100
AcDbEntity
  8
1
100
AcDbLine
 10
58.701212074
 20
29.999994422
 30
0.0
 11
60.038454828
 21
22.4161137
 31
0.0
  0
ARC
  5
B7
330
1D
100
AcDbEntity
  8
1
100
AcDbCircle
 10
38.999979164
 20
26.999994422
 30
0.0
 40
3.0
100
AcDbArc
 50
90.0
 51
145.237214756
  0
LINE
  5
B8
330
1D
100
AcDbEntity
  8
1
100
AcDbLine
 10
42.499979164
 20
29.999994422
 30
0.0
 11
38.999979164
 21
29.999994422
 31
0.0
  0
LINE
  5
BA
330
1D
100
AcDbEntity
  8
SK4
100
AcDbLine
 10
67.577272559
 20
24.445383216
 30
0.0
 11
67.577272559
 21
33.445383216
 31
0.0
  0
LINE
  5
BB
330
1D
100
AcDbEntity
  8
SK4
100
AcDbLine
 10
72.077272559
 20
28.945383216
 30
0.0
 11
63.077272559
 21
28.945383216
 31
0.0
  0
LINE
  5
BC
330
1D
100
AcDbEntity
  8
2
100
AcDbLine
 10
0.0
 20
46.00000018
 30
0.0
 11
0.0
 21
29.084474744
 31
0.0
  0
LINE
  5
BD
330
1D
100
AcDbEntity
  8
2
100
AcDbLine
 10
0.0
 20
44.00000018
 30
0.0
 11
3.5
 21
44.450000179
 31
0.0
  0
LINE
  5
BE
330
1D
100
AcDbEntity
  8
2
100
AcDbLine
 10
3.5
 20
44.450000179
 30
0.0
 11
3.5
 21
43.550000179
 31
0.0
  0
LINE
  5
BF
330
1D
100
AcDbEntity
  8
2
100
AcDbLine
 10
3.5
 20
43.550000179
 30
0.0
 11
0.0
 21
44.00000018
 31
0.0
  0
LINE
  5
C0
330
1D
100
AcDbEntity
  8
2
100
AcDbLine
 10
71.0
 20
46.000000145
 30
0.0
 11
71.0
 21
33.600000526
 31
0.0
  0
LINE
  5
C1
330
1D
100
AcDbEntity
  8
2
100
AcDbLine
 10
71.0
 20
44.000000145
 30
0.0
 11
67.5
 21
43.550000146
 31
0.0
  0
LINE
  5
C2
330
1D
100
AcDbEntity
  8
2
100
AcDbLine
 10
67.5
 20
43.550000146
 30
0.0
 11
67.5
 21
44.450000146
 31
0.0
  0
LINE
  5
C3
330
1D
100
AcDbEntity
  8
2
100
AcDbLine
 10
67.5
 20
44.450000146
 30
0.0
 11
71.0
 21
44.000000145
 31
0.0
  0
LINE
  5
C4
330
1D
100
AcDbEntity
  8
2
100
AcDbLine
 10
3.5
 20
44.000000179
 30
0.0
 11
67.5
 21
44.000000146
 31
0.0
  0
TEXT
  5
C5
330
1D
100
AcDbEntity
  8
2
100
AcDbText
 10
34.218124207
 20
45.500000163
 30
0.0
 40
3.5
  1
71
 50
359.999999971
  7
BMG_Text
100
AcDbText
  0
LINE
  5
C6
330
1D
100
AcDbEntity
  8
2
100
AcDbLine
 10
-58.000001079
 20
-31.499917261
 30
0.0
 11
1.020762318
 21
-31.499917261
 31
0.0
  0
LINE
  5
C7
330
1D
100
AcDbEntity
  8
2
100
AcDbLine
 10
-56.000001079
 20
-31.499917261
 30
0.0
 11
-56.450001079
 21
-27.999917261
 31
0.0
  0
LINE
  5
C8
330
1D
100
AcDbEntity
  8
2
100
AcDbLine
 10
-56.450001079
 20
-27.999917261
 30
0.0
 11
-55.550001079
 21
-27.999917261
 31
0.0
  0
LINE
  5
C9
330
1D
100
AcDbEntity
  8
2
100
AcDbLine
 10
-55.550001079
 20
-27.999917261
 30
0.0
 11
-56.000001079
 21
-31.499917261
 31
0.0
  0
LINE
  5
CA
330
1D
100
AcDbEntity
  8
2
100
AcDbLine
 10
-58.000001079
 20
31.500143167
 30
0.0
 11
1.020762318
 21
31.500143167
 31
0.0
  0
LINE
  5
CB
330
1D
100
AcDbEntity
  8
2
100
AcDbLine
 10
-56.000001079
 20
31.500143167
 30
0.0
 11
-55.550001079
 21
28.000143167
 31
0.0
  0
LINE
  5
CC
330
1D
100
AcDbEntity
  8
2
100
AcDbLine
 10
-55.550001079
 20
28.000143167
 30
0.0
 11
-56.450001079
 21
28.000143167
 31
0.0
  0
LINE
  5
CD
330
1D
100
AcDbEntity
  8
2
100
AcDbLine
 10
-56.450001079
 20
28.000143167
 30
0.0
 11
-56.000001079
 21
31.500143167
 31
0.0
  0
LINE
  5
CE
330
1D
100
AcDbEntity
  8
2
100
AcDbLine
 10
-56.000001079
 20
-27.999917261
 30
0.0
 11
-56.000001079
 21
28.000143167
 31
0.0
  0
TEXT
  5
CF
330
1D
100
AcDbEntity
  8
2
100
AcDbText
 10
-57.500001079
 20
0.331518499
 30
0.0
 40
3.5
  1
63
 50
90.0
  7
BMG_Text
100
AcDbText
  0
CIRCLE
  5
D0
330
1D
100
AcDbEntity
  8
2
100
AcDbCircle
 10
-58.750001079
 20
-1.918481501
 30
0.0
 40
1.25
  0
LINE
  5
D1
330
1D
100
AcDbEntity
  8
2
100
AcDbLine
 10
-57.500001079
 20
-3.168481501
 30
0.0
 11
-60.000001079
 21
-0.668481501
 31
0.0
  0
LINE
  5
D2
330
1D
100
AcDbEntity
  8
SK2
100
AcDbLine
 10
-49.999999914
 20
-18.0
 30
0.0
 11
-34.980353269
 21
-18.0
 31
0.0
  0
LINE
  5
D3
330
1D
100
AcDbEntity
  8
SK2
100
AcDbLine
 10
-47.999999914
 20
-18.0
 30
0.0
 11
-48.449999914
 21
-14.5
 31
0.0
  0
LINE
  5
D4
330
1D
100
AcDbEntity
  8
SK2
100
AcDbLine
 10
-48.449999914
 20
-14.5
 30
0.0
 11
-47.549999914
 21
-14.5
 31
0.0
  0
LINE
  5
D5
330
1D
100
AcDbEntity
  8
SK2
100
AcDbLine
 10
-47.549999914
 20
-14.5
 30
0.0
 11
-47.999999914
 21
-18.0
 31
0.0
  0
LINE
  5
D6
330
1D
100
AcDbEntity
  8
SK2
100
AcDbLine
 10
-49.999999914
 20
18.001115587
 30
0.0
 11
-34.980353269
 21
18.001115587
 31
0.0
  0
LINE
  5
D7
330
1D
100
AcDbEntity
  8
SK2
100
AcDbLine
 10
-47.999999914
 20
18.001115587
 30
0.0
 11
-47.549999914
 21
14.501115587
 31
0.0
  0
LINE
  5
D8
330
1D
100
AcDbEntity
  8
SK2
100
AcDbLine
 10
-47.549999914
 20
14.501115587
 30
0.0
 11
-48.449999914
 21
14.501115587
 31
0.0
  0
LINE
  5
D9
330
1D
100
AcDbEntity
  8
SK2
100
AcDbLine
 10
-48.449999914
 20
14.501115587
 30
0.0
 11
-47.999999914
 21
18.001115587
 31
0.0
  0
LINE
  5
DA
330
1D
100
AcDbEntity
  8
SK2
100
AcDbLine
 10
-47.999999914
 20
-14.5
 30
0.0
 11
-47.999999914
 21
14.501115587
 31
0.0
  0
TEXT
  5
DB
330
1D
100
AcDbEntity
  8
SK2
100
AcDbText
 10
-49.499999914
 20
0.331963641
 30
0.0
 40
3.5
  1
36
 50
90.0
  7
BMG_Text
100
AcDbText
  0
CIRCLE
  5
DC
330
1D
100
AcDbEntity
  8
SK2
100
AcDbCircle
 10
-50.749999914
 20
-1.918036359
 30
0.0
 40
1.25
  0
LINE
  5
DD
330
1D
100
AcDbEntity
  8
SK2
100
AcDbLine
 10
-49.499999914
 20
-3.168036359
 30
0.0
 11
-51.999999914
 21
-0.668036359
 31
0.0
  0
LINE
  5
DE
330
1D
100
AcDbEntity
  8
2
100
AcDbLine
 10
0.0
 20
-45.999999868
 30
0.0
 11
0.0
 21
-29.111248838
 31
0.0
  0
LINE
  5
DF
330
1D
100
AcDbEntity
  8
2
100
AcDbLine
 10
0.0
 20
-43.999999868
 30
0.0
 11
3.500000007
 21
-43.549999921
 31
0.0
  0
LINE
  5
E0
330
1D
100
AcDbEntity
  8
2
100
AcDbLine
 10
3.500000007
 20
-43.549999921
 30
0.0
 11
3.499999993
 21
-44.449999921
 31
0.0
  0
LINE
  5
E1
330
1D
100
AcDbEntity
  8
2
100
AcDbLine
 10
3.499999993
 20
-44.449999921
 30
0.0
 11
0.0
 21
-43.999999868
 31
0.0
  0
LINE
  5
E2
330
1D
100
AcDbEntity
  8
2
100
AcDbLine
 10
67.199668423
 20
-46.000000895
 30
0.0
 11
67.199668423
 21
-25.000309885
 31
0.0
  0
LINE
  5
E3
330
1D
100
AcDbEntity
  8
2
100
AcDbLine
 10
67.199668423
 20
-44.000000895
 30
0.0
 11
63.699668416
 21
-44.450000841
 31
0.0
  0
LINE
  5
E4
330
1D
100
AcDbEntity
  8
2
100
AcDbLine
 10
63.699668416
 20
-44.450000841
 30
0.0
 11
63.69966843
 21
-43.550000841
 31
0.0
  0
LINE
  5
E5
330
1D
100
AcDbEntity
  8
2
100
AcDbLine
 10
63.69966843
 20
-43.550000841
 30
0.0
 11
67.199668423
 21
-44.000000895
 31
0.0
  0
LINE
  5
E6
330
1D
100
AcDbEntity
  8
2
100
AcDbLine
 10
3.5
 20
-43.999999921
 30
0.0
 11
63.699668423
 21
-44.000000841
 31
0.0
  0
TEXT
  5
E7
330
1D
100
AcDbEntity
  8
2
100
AcDbText
 10
30.376552233
 20
-42.500000332
 30
0.0
 40
3.5
  1
67.2
 50
359.999999125
  7
BMG_Text
100
AcDbText
  0
LINE
  5
E8
330
1D
100
AcDbEntity
  8
2
100
AcDbLine
 10
85.999999191
 20
34.000000673
 30
0.0
 11
70.600000526
 21
34.0
 31
0.0
  0
LINE
  5
E9
330
1D
100
AcDbEntity
  8
2
100
AcDbLine
 10
83.999999191
 20
34.000000586
 30
0.0
 11
84.449999344
 21
30.500000605
 31
0.0
  0
LINE
  5
EA
330
1D
100
AcDbEntity
  8
2
100
AcDbLine
 10
84.449999344
 20
30.500000605
 30
0.0
 11
83.549999344
 21
30.500000566
 31
0.0
  0
LINE
  5
EB
330
1D
100
AcDbEntity
  8
2
100
AcDbLine
 10
83.549999344
 20
30.500000566
 30
0.0
 11
83.999999191
 21
34.000000586
 31
0.0
  0
LINE
  5
EC
330
1D
100
AcDbEntity
  8
2
100
AcDbLine
 10
84.000000826
 20
-3.399999346
 30
0.0
 11
83.999999344
 21
30.500000586
 31
0.0
  0
CIRCLE
  5
ED
330
1D
100
AcDbEntity
  8
2
100
AcDbCircle
 10
81.250000243
 20
9.936093832
 30
0.0
 40
1.25
  0
LINE
  5
EE
330
1D
100
AcDbEntity
  8
2
100
AcDbLine
 10
82.500000297
 20
8.686093886
 30
0.0
 11
80.000000188
 21
11.186093777
 31
0.0
  0
TEXT
  5
EF
330
1D
100
AcDbEntity
  8
2
100
AcDbText
 10
82.500000144
 20
12.186093886
 30
0.0
 40
3.5
  1
68-88
 50
90.00000250400001
  7
BMG_Text
100
AcDbText
  0
TEXT
  5
F0
330
1D
100
AcDbEntity
  8
SK6
100
AcDbText
 10
67.96287450275008
 20
-58.37856230058735
 30
0.0
 40
3.5
  1
310.605A
  7
BMG_Text
100
AcDbText
  0
LINE
  5
18D
330
1D
100
AcDbEntity
  8
NOCUT
100
AcDbLine
 10
0.0
 20
-0.0133870469999984
 30
0.0
 11
0.0
 21
29.084474744
 31
0.0
  0
LINE
  5
18E
330
1D
100
AcDbEntity
  8
NOCUT
100
AcDbLine
 10
0.0
 20
29.084474744
 30
0.0
 11
0.510938953
 21
29.084474744
 31
0.0
  0
LINE
  5
18F
330
1D
100
AcDbEntity
  8
NOCUT
100
AcDbLine
 10
0.510938953
 20
29.084474744
 30
0.0
 11
0.510938953
 21
30.990319802
 31
0.0
  0
LINE
  5
190
330
1D
100
AcDbEntity
  8
NOCUT
100
AcDbLine
 10
0.510938953
 20
30.990319802
 30
0.0
 11
1.020762318
 21
31.500143167
 31
0.0
  0
LINE
  5
191
330
1D
100
AcDbEntity
  8
NOCUT
100
AcDbLine
 10
1.020762318
 20
31.500143167
 30
0.0
 11
30.640135633
 21
31.500143167
 31
0.0
  0
LINE
  5
192
330
1D
100
AcDbEntity
  8
NOCUT
100
AcDbLine
 10
30.640135633
 20
31.500143167
 30
0.0
 11
31.011093895
 21
30.190021692
 31
0.0
  0
LINE
  5
193
330
1D
100
AcDbEntity
  8
NOCUT
100
AcDbLine
 10
31.011093895
 20
30.190021692
 30
0.0
 11
36.53541998664409
 21
28.71053470545161
 31
0.0
  0
LINE
  5
195
330
1D
100
AcDbEntity
  8
NOCUT
100
AcDbLine
 10
53.499994422
 20
29.999994422
 30
0.0
 11
59.100519325
 21
29.999994422
 31
0.0
  0
LINE
  5
196
330
1D
100
AcDbEntity
  8
NOCUT
100
AcDbLine
 10
59.100519325
 20
29.999994422
 30
0.0
 11
60.200014259
 21
31.90438285
 31
0.0
  0
LINE
  5
197
330
1D
100
AcDbEntity
  8
NOCUT
100
AcDbLine
 10
60.200014259
 20
31.90438285
 30
0.0
 11
68.920053626
 21
33.441965247
 31
0.0
  0
LINE
  5
198
330
1D
100
AcDbEntity
  8
NOCUT
100
AcDbLine
 10
68.920053626
 20
33.441965247
 30
0.0
 11
69.020776893
 21
33.244272376
 31
0.0
  0
LINE
  5
199
330
1D
100
AcDbEntity
  8
NOCUT
100
AcDbLine
 10
69.020776893
 20
33.244272376
 30
0.0
 11
70.77050827295639
 21
33.65325251449237
 31
0.0
  0
LINE
  5
19A
330
1D
100
AcDbEntity
  8
NOCUT
100
AcDbLine
 10
70.77050827295639
 20
33.65325251449237
 30
0.0
 11
70.29958968680347
 21
24.04599489361972
 31
0.0
  0
LINE
  5
19B
330
1D
100
AcDbEntity
  8
NOCUT
100
AcDbLine
 10
70.29958968680347
 20
24.04599489361972
 30
0.0
 11
70.085977699
 21
23.600458289
 31
0.0
  0
LINE
  5
19C
330
1D
100
AcDbEntity
  8
NOCUT
100
AcDbLine
 10
70.085977699
 20
23.600458289
 30
0.0
 11
69.975885536
 21
21.499994422
 31
0.0
  0
LINE
  5
19D
330
1D
100
AcDbEntity
  8
NOCUT
100
AcDbLine
 10
69.975885536
 20
21.499994422
 30
0.0
 11
67.22992350392975
 21
21.499994422
 31
0.0
  0
LINE
  5
19E
330
1D
100
AcDbEntity
  8
NOCUT
100
AcDbLine
 10
67.22992350392975
 20
21.499994422
 30
0.0
 11
67.22992350392975
 21
0.0
 31
0.0
  0
LINE
  5
19F
330
1D
100
AcDbEntity
  8
NOCUT
100
AcDbLine
 10
67.22992350392975
 20
0.0
 30
0.0
 11
-0.0043677889161984
 21
0.0000000000000082
 31
0.0
  0
ARC
  5
1A0
330
1D
100
AcDbEntity
  8
NOCUT
100
AcDbCircle
 10
38.999979164
 20
26.999994422
 30
0.0
 40
2.999999999999996
100
AcDbArc
 50
90.0
 51
145.237214756
  0
ARC
  5
1A1
330
1D
100
AcDbEntity
  8
NOCUT
100
AcDbCircle
 10
47.99998911370474
 20
58.82636955200516
 30
0.0
 40
29.34637901900431
100
AcDbArc
 50
259.1979191051283
 51
280.8020715451986
  0
LINE
  5
1A2
330
1D
100
AcDbEntity
  8
NOCUT
100
AcDbLine
 10
42.49997910144729
 20
29.99999531950544
 30
0.0
 11
38.99056285693773
 21
29.99999531950544
 31
0.0
  0
LINE
  5
1AC
330
1D
100
AcDbEntity
  8
3
100
AcDbLine
 10
69.020776893
 20
33.244272376
 30
0.0
 11
70.77050827295639
 21
33.65325251449237
 31
0.0
  0
LINE
  5
1AD
330
1D
100
AcDbEntity
  8
3
100
AcDbLine
 10
70.77050827295639
 20
33.65325251449237
 30
0.0
 11
70.29958968680347
 21
24.04599489361972
 31
0.0
  0
LINE
  5
1AE
330
1D
100
AcDbEntity
  8
3
100
AcDbLine
 10
70.29958968680347
 20
24.04599489361972
 30
0.0
 11
70.085977699
 21
23.600458289
 31
0.0
  0
LINE
  5
1AF
330
1D
100
AcDbEntity
  8
1
100
AcDbLine
 10
63.919748451
 20
27.534845497
 30
0.0
 11
70.00790979904266
 21
23.58088896615754
 31
0.0
  0
LINE
  5
1B0
330
1D
100
AcDbEntity
  8
1
100
AcDbLine
 10
70.00790979904266
 20
23.58088896615754
 30
0.0
 11
70.08495200695454
 21
23.58088896615754
 31
0.0
  0
LINE
  5
1B1
330
1D
100
AcDbEntity
  8
1
100
AcDbLine
 10
64.087198402
 20
30.730478431
 30
0.0
 11
69.020776893
 21
33.244272376
 31
0.0
  0
LWPOLYLINE
  5
1B8
330
1D
100
AcDbEntity
  8
INFTOTAL
100
AcDbPolyline
 90
        4
 70
     1
 43
0.0
 10
-87.15717942894547
 20
58.51170506035685
 10
-87.15717942894547
 20
-60.29021534539572
 10
95.129517193631
 20
-60.29021534539572
 10
95.129517193631
 20
58.51170506035685
  0
LINE
  5
200
330
1D
100
AcDbEntity
  8
SK3
100
AcDbLine
 10
-3.004276418
 20
-8.022187791
 30
0.0
 11
0.0
 21
-2.806409972828135
 31
0.0
  0
LINE
  5
201
330
1D
100
AcDbEntity
  8
SK3
100
AcDbLine
 10
-3.004276418
 20
7.99429811
 30
0.0
 11
0.0
 21
2.796653297849121
 31
0.0
  0
LINE
  5
202
330
1D
100
AcDbEntity
  8
SK3
100
AcDbLine
 10
-3.004276418
 20
7.99429811
 30
0.0
 11
0.0
 21
9.244444910707939
 31
0.0
  0
LINE
  5
203
330
1D
100
AcDbEntity
  8
SK3
100
AcDbLine
 10
-0.481933685
 20
3.629005268
 30
0.0
 11
0.0
 21
3.829527257158415
 31
0.0
  0
LINE
  5
205
102
{ACAD_REACTORS
330
21D
102
}
330
1D
100
AcDbEntity
  8
CUT
100
AcDbLine
 10
61.85326590699999
 20
29.592249061
 30
0.0
 11
70.418420936
 21
33.95640006199999
 31
0.0
  0
ARC
  5
206
102
{ACAD_REACTORS
330
21D
102
}
330
1D
100
AcDbEntity
  8
CUT
100
AcDbCircle
 10
70.60000052599999
 20
33.600000526
 30
0.0
 40
0.399999474
100
AcDbArc
 50
357.000002303001
 51
117.0000396710019
  0
LINE
  5
207
102
{ACAD_REACTORS
330
21D
102
}
330
1D
100
AcDbEntity
  8
CUT
100
AcDbLine
 10
70.99944510599998
 20
33.57908072599999
 30
0.0
 11
70.49634757199998
 21
23.979364539
 31
0.0
  0
ARC
  5
208
102
{ACAD_REACTORS
330
21D
102
}
330
1D
100
AcDbEntity
  8
CUT
100
AcDbCircle
 10
70.09690299199998
 20
24.000299598
 30
0.0
 40
0.400000011
100
AcDbArc
 50
236.9998807779991
 51
357.000002303
  0
ARC
  5
209
102
{ACAD_REACTORS
330
21D
102
}
330
1D
100
AcDbEntity
  8
CUT
100
AcDbCircle
 10
62.034860755
 20
29.235849525
 30
0.0
 40
0.400001228
100
AcDbArc
 50
117.0000128490046
 51
236.9999880659952
  0
LINE
  5
20A
102
{ACAD_REACTORS
330
21D
102
}
330
1D
100
AcDbEntity
  8
CUT
100
AcDbLine
 10
69.87905325999999
 20
23.664835121
 30
0.0
 11
61.817011024
 21
28.90038504699999
 31
0.0
  0
CIRCLE
  5
20B
102
{ACAD_REACTORS
330
21D
102
}
330
1D
100
AcDbEntity
  8
1
100
AcDbCircle
 10
67.57727255899998
 20
28.945383216
 30
0.0
 40
1.899993886
  0
HATCH
  5
21D
330
1D
100
AcDbEntity
  8
7
100
AcDbHatch
 10
0.0
 20
0.0
 30
0.0
210
0.0
220
0.0
230
1.0
  2
ANSI31
 70
     0
 71
     1
 91
        2
 92
        7
 72
     1
 73
     1
 93
        6
 10
70.49635300629613
 20
23.97936505798729
 42
0.0
 10
70.9994501380981
 20
33.57906982181559
 42
0.5773508965157864
 10
70.41840847260055
 20
33.95640192145299
 42
0.0
 10
61.85326441500825
 20
29.5922521563302
 42
0.577355110506217
 10
61.81700605772735
 20
28.90038149673336
 42
0.0
 10
69.87904832046668
 20
23.66483264143605
 42
0.5773548704399252
 97
        6
330
207
330
206
330
205
330
209
330
20A
330
208
 92
       22
 72
     1
 73
     1
 93
        2
 10
65.67727867299998
 20
28.945383216
 42
1.0
 10
69.47726644499998
 20
28.945383216
 42
1.0
 97
        1
330
20B
 75
     0
 76
     1
 52
0.0
 41
1.0
 77
     0
 78
     1
 53
45.0
 43
-70.82413969261314
 44
-11.41600286331776
 45
-0.0883883476483184
 46
0.0883883476483184
 79
     0
 47
0.0
 98
        2
 10
69.74721062794752
 20
24.02560181679107
 10
69.74721062794752
 20
24.02560181679107
1001
ACAD
1010
0.0
1020
0.0
1030
0.0
  0
LINE
  5
23F
330
1D
100
AcDbEntity
  8
4
100
AcDbLine
 10
47.99033157700001
 20
-32.058630307
 30
0.0
 11
47.99033157700001
 21
31.578927797
 31
0.0
  0
LINE
  5
240
330
1D
100
AcDbEntity
  8
4
100
AcDbLine
 10
32.00285094500001
 20
-5.357049891999996
 30
0.0
 11
32.00285094500001
 21
8.645801054000003
 31
0.0
  0
LINE
  5
241
330
1D
100
AcDbEntity
  8
4
100
AcDbLine
 10
39.00427641800002
 20
1.644375581000002
 30
0.0
 11
25.00142547300001
 21
1.644375581000002
 31
0.0
  0
LINE
  5
242
330
1D
100
AcDbEntity
  8
4
100
AcDbLine
 10
-0.0000000000000004
 20
6.531346478482856
 30
0.0
 11
48.558165479
 21
26.731701271
 31
0.0
  0
LINE
  5
243
330
1D
100
AcDbEntity
  8
4
100
AcDbLine
 10
67.577272559
 20
24.445383216
 30
0.0
 11
67.577272559
 21
33.445383216
 31
0.0
  0
LINE
  5
244
330
1D
100
AcDbEntity
  8
4
100
AcDbLine
 10
72.077272559
 20
28.945383216
 30
0.0
 11
63.07727255899999
 21
28.945383216
 31
0.0
  0
LINE
  5
250
330
1D
100
AcDbEntity
  8
4
100
AcDbLine
 10
69.19429811
 20
0.0
 30
0.0
 11
0.0000000000000071
 21
0.0
 31
0.0
  0
ENDSEC
  0
SECTION
  2
OBJECTS
  0
DICTIONARY
  5
C
330
0
100
AcDbDictionary
281
     1
  3
ACAD_DETAILVIEWSTYLE
350
1A6
  3
ACAD_GROUP
350
D
  3
ACAD_LAYOUT
350
1A
  3
ACAD_MLINESTYLE
350
17
  3
ACAD_PLOTSETTINGS
350
19
  3
ACAD_PLOTSTYLENAME
350
E
  3
ACAD_SCALELIST
350
F7
  3
ACAD_SECTIONVIEWSTYLE
350
1A7
  3
AcDbVariableDictionary
350
139
  3
APPDATA
350
187
  3
DWGPROPS
350
283
  0
DICTIONARY
  5
188
330
2
100
AcDbDictionary
280
     1
281
     1
  3
ACAD_LAYERSTATES
360
189
  3
ACLYDICTIONARY
360
217
  0
DICTIONARY
  5
21A
330
1D
100
AcDbDictionary
280
     1
281
     1
  3
ACAD_SORTENTS
360
21B
  0
DICTIONARY
  5
1A6
102
{ACAD_REACTORS
330
C
102
}
330
C
100
AcDbDictionary
281
     1
  0
DICTIONARY
  5
D
102
{ACAD_REACTORS
330
C
102
}
330
C
100
AcDbDictionary
281
     1
  0
DICTIONARY
  5
1A
102
{ACAD_REACTORS
330
C
102
}
330
C
100
AcDbDictionary
281
     1
  3
Layout1
350
1C
  3
Model
350
1E
  0
DICTIONARY
  5
17
102
{ACAD_REACTORS
330
C
102
}
330
C
100
AcDbDictionary
281
     1
  3
Standard
350
18
  0
DICTIONARY
  5
19
102
{ACAD_REACTORS
330
C
102
}
330
C
100
AcDbDictionary
281
     1
  0
ACDBDICTIONARYWDFLT
  5
E
102
{ACAD_REACTORS
330
C
102
}
330
C
100
AcDbDictionary
281
     1
  3
Normal
350
F
100
AcDbDictionaryWithDefault
340
F
  0
DICTIONARY
  5
F7
102
{ACAD_REACTORS
330
C
102
}
330
C
100
AcDbDictionary
281
     1
  3
A0
350
F8
  3
A1
350
F9
  3
A2
350
FA
  3
A3
350
FB
  3
A4
350
FC
  3
A5
350
FD
  3
A6
350
FE
  3
A7
350
FF
  3
A8
350
100
  3
A9
350
101
  3
B0
350
102
  3
B1
350
103
  3
B2
350
104
  3
B3
350
105
  3
B4
350
106
  3
B5
350
107
  3
B6
350
108
  3
B7
350
109
  3
B8
350
10A
  3
B9
350
10B
  3
C0
350
10C
  3
C1
350
10D
  3
C2
350
10E
  3
C3
350
10F
  3
C4
350
110
  3
C5
350
111
  3
C6
350
112
  3
C7
350
113
  3
C8
350
114
  3
C9
350
115
  3
D0
350
116
  3
D1
350
117
  3
D2
350
118
  0
DICTIONARY
  5
1A7
102
{ACAD_REACTORS
330
C
102
}
330
C
100
AcDbDictionary
281
     1
  0
DICTIONARY
  5
139
102
{ACAD_REACTORS
330
C
102
}
330
C
100
AcDbDictionary
281
     1
  3
DIMASSOC
350
13D
  3
HIDETEXT
350
13E
  0
DICTIONARY
  5
187
102
{ACAD_REACTORS
330
C
102
}
330
C
100
AcDbDictionary
281
     1
  0
XRECORD
  5
283
102
{ACAD_REACTORS
330
C
102
}
330
C
100
AcDbXrecord
280
     1
  1
DWGPROPS COOKIE
  2

  3

  4

  6

  7

  8
matthias.ochs
  9

300
=
301
=
302
=
303
=
304
=
305
=
306
=
307
=
308
=
309
=
 40
0.0
 41
2458327.465980926
 42
2458589.507842292
  1

 90
        0
  0
DICTIONARY
  5
189
102
{ACAD_REACTORS
330
188
102
}
330
188
100
AcDbDictionary
281
     1
  0
DICTIONARY
  5
217
102
{ACAD_REACTORS
330
188
102
}
330
188
100
AcDbDictionary
281
     1
1001
ACAD
1000
<All
  0
SORTENTSTABLE
  5
21B
102
{ACAD_REACTORS
330
21A
102
}
330
21A
100
AcDbSortentsTable
330
1D
331
0
  5
205
331
205
  5
208
331
206
  5
209
331
207
  5
20A
331
208
  5
20B
331
209
  5
219
331
20A
  5
21C
331
20B
  5
21D
331
21D
  5
207
  0
LAYOUT
  5
1C
102
{ACAD_REACTORS
330
1A
102
}
330
1A
100
AcDbPlotSettings
  1

  2
none_device
  4

  6

 40
0.0
 41
0.0
 42
0.0
 43
0.0
 44
0.0
 45
0.0
 46
0.0
 47
0.0
 48
0.0
 49
0.0
140
0.0
141
0.0
142
1.0
143
1.0
 70
   688
 72
     0
 73
     0
 74
     5
  7

 75
    16
147
1.0
148
0.0
149
0.0
100
AcDbLayout
  1
Layout1
 70
     1
 71
     1
 10
0.0
 20
0.0
 11
12.0
 21
9.0
 12
0.0
 22
0.0
 32
0.0
 14
1.000000000000000E+20
 24
1.000000000000000E+20
 34
1.000000000000000E+20
 15
-1.000000000000000E+20
 25
-1.000000000000000E+20
 35
-1.000000000000000E+20
146
0.0
 13
0.0
 23
0.0
 33
0.0
 16
1.0
 26
0.0
 36
0.0
 17
0.0
 27
1.0
 37
0.0
 76
     0
330
1B
  0
LAYOUT
  5
1E
102
{ACAD_REACTORS
330
1A
102
}
330
1A
100
AcDbPlotSettings
  1

  2
none_device
  4

  6

 40
0.0
 41
0.0
 42
0.0
 43
0.0
 44
0.0
 45
0.0
 46
0.0
 47
0.0
 48
0.0
 49
0.0
140
0.0
141
0.0
142
1.0
143
1.0
 70
  1712
 72
     0
 73
     0
 74
     0
  7

 75
     0
147
1.0
148
0.0
149
0.0
100
AcDbLayout
  1
Model
 70
     1
 71
     0
 10
0.0
 20
0.0
 11
12.0
 21
9.0
 12
0.0
 22
0.0
 32
0.0
 14
-87.15717942894547
 24
-60.29021534539572
 34
0.0
 15
95.129517193631
 25
58.51170506035685
 35
0.0
146
0.0
 13
0.0
 23
0.0
 33
0.0
 16
1.0
 26
0.0
 36
0.0
 17
0.0
 27
1.0
 37
0.0
 76
     0
330
1D
331
F1
  0
MLINESTYLE
  5
18
102
{ACAD_REACTORS
330
17
102
}
330
17
100
AcDbMlineStyle
  2
Standard
 70
     0
  3

 62
   256
 51
90.0
 52
90.0
 71
     2
 49
0.5
 62
   256
  6
BYLAYER
 49
-0.5
 62
   256
  6
BYLAYER
  0
ACDBPLACEHOLDER
  5
F
102
{ACAD_REACTORS
330
E
102
}
330
E
  0
SCALE
  5
F8
102
{ACAD_REACTORS
330
F7
102
}
330
F7
100
AcDbScale
 70
     0
300
1:1
140
1.0
141
1.0
290
     1
  0
SCALE
  5
F9
102
{ACAD_REACTORS
330
F7
102
}
330
F7
100
AcDbScale
 70
     0
300
1:2
140
1.0
141
2.0
290
     0
  0
SCALE
  5
FA
102
{ACAD_REACTORS
330
F7
102
}
330
F7
100
AcDbScale
 70
     0
300
1:4
140
1.0
141
4.0
290
     0
  0
SCALE
  5
FB
102
{ACAD_REACTORS
330
F7
102
}
330
F7
100
AcDbScale
 70
     0
300
1:5
140
1.0
141
5.0
290
     0
  0
SCALE
  5
FC
102
{ACAD_REACTORS
330
F7
102
}
330
F7
100
AcDbScale
 70
     0
300
1:8
140
1.0
141
8.0
290
     0
  0
SCALE
  5
FD
102
{ACAD_REACTORS
330
F7
102
}
330
F7
100
AcDbScale
 70
     0
300
1:10
140
1.0
141
10.0
290
     0
  0
SCALE
  5
FE
102
{ACAD_REACTORS
330
F7
102
}
330
F7
100
AcDbScale
 70
     0
300
1:16
140
1.0
141
16.0
290
     0
  0
SCALE
  5
FF
102
{ACAD_REACTORS
330
F7
102
}
330
F7
100
AcDbScale
 70
     0
300
1:20
140
1.0
141
20.0
290
     0
  0
SCALE
  5
100
102
{ACAD_REACTORS
330
F7
102
}
330
F7
100
AcDbScale
 70
     0
300
1:30
140
1.0
141
30.0
290
     0
  0
SCALE
  5
101
102
{ACAD_REACTORS
330
F7
102
}
330
F7
100
AcDbScale
 70
     0
300
1:40
140
1.0
141
40.0
290
     0
  0
SCALE
  5
102
102
{ACAD_REACTORS
330
F7
102
}
330
F7
100
AcDbScale
 70
     0
300
1:50
140
1.0
141
50.0
290
     0
  0
SCALE
  5
103
102
{ACAD_REACTORS
330
F7
102
}
330
F7
100
AcDbScale
 70
     0
300
1:100
140
1.0
141
100.0
290
     0
  0
SCALE
  5
104
102
{ACAD_REACTORS
330
F7
102
}
330
F7
100
AcDbScale
 70
     0
300
2:1
140
2.0
141
1.0
290
     0
  0
SCALE
  5
105
102
{ACAD_REACTORS
330
F7
102
}
330
F7
100
AcDbScale
 70
     0
300
4:1
140
4.0
141
1.0
290
     0
  0
SCALE
  5
106
102
{ACAD_REACTORS
330
F7
102
}
330
F7
100
AcDbScale
 70
     0
300
8:1
140
8.0
141
1.0
290
     0
  0
SCALE
  5
107
102
{ACAD_REACTORS
330
F7
102
}
330
F7
100
AcDbScale
 70
     0
300
10:1
140
10.0
141
1.0
290
     0
  0
SCALE
  5
108
102
{ACAD_REACTORS
330
F7
102
}
330
F7
100
AcDbScale
 70
     0
300
100:1
140
100.0
141
1.0
290
     0
  0
SCALE
  5
109
102
{ACAD_REACTORS
330
F7
102
}
330
F7
100
AcDbScale
 70
     0
300
1/128" = 1'-0"
140
0.0078125
141
12.0
290
     0
  0
SCALE
  5
10A
102
{ACAD_REACTORS
330
F7
102
}
330
F7
100
AcDbScale
 70
     0
300
1/64" = 1'-0"
140
0.015625
141
12.0
290
     0
  0
SCALE
  5
10B
102
{ACAD_REACTORS
330
F7
102
}
330
F7
100
AcDbScale
 70
     0
300
1/32" = 1'-0"
140
0.03125
141
12.0
290
     0
  0
SCALE
  5
10C
102
{ACAD_REACTORS
330
F7
102
}
330
F7
100
AcDbScale
 70
     0
300
1/16" = 1'-0"
140
0.0625
141
12.0
290
     0
  0
SCALE
  5
10D
102
{ACAD_REACTORS
330
F7
102
}
330
F7
100
AcDbScale
 70
     0
300
3/32" = 1'-0"
140
0.09375
141
12.0
290
     0
  0
SCALE
  5
10E
102
{ACAD_REACTORS
330
F7
102
}
330
F7
100
AcDbScale
 70
     0
300
1/8" = 1'-0"
140
0.125
141
12.0
290
     0
  0
SCALE
  5
10F
102
{ACAD_REACTORS
330
F7
102
}
330
F7
100
AcDbScale
 70
     0
300
3/16" = 1'-0"
140
0.1875
141
12.0
290
     0
  0
SCALE
  5
110
102
{ACAD_REACTORS
330
F7
102
}
330
F7
100
AcDbScale
 70
     0
300
1/4" = 1'-0"
140
0.25
141
12.0
290
     0
  0
SCALE
  5
111
102
{ACAD_REACTORS
330
F7
102
}
330
F7
100
AcDbScale
 70
     0
300
3/8" = 1'-0"
140
0.375
141
12.0
290
     0
  0
SCALE
  5
112
102
{ACAD_REACTORS
330
F7
102
}
330
F7
100
AcDbScale
 70
     0
300
1/2" = 1'-0"
140
0.5
141
12.0
290
     0
  0
SCALE
  5
113
102
{ACAD_REACTORS
330
F7
102
}
330
F7
100
AcDbScale
 70
     0
300
3/4" = 1'-0"
140
0.75
141
12.0
290
     0
  0
SCALE
  5
114
102
{ACAD_REACTORS
330
F7
102
}
330
F7
100
AcDbScale
 70
     0
300
1" = 1'-0"
140
1.0
141
12.0
290
     0
  0
SCALE
  5
115
102
{ACAD_REACTORS
330
F7
102
}
330
F7
100
AcDbScale
 70
     0
300
1-1/2" = 1'-0"
140
1.5
141
12.0
290
     0
  0
SCALE
  5
116
102
{ACAD_REACTORS
330
F7
102
}
330
F7
100
AcDbScale
 70
     0
300
3" = 1'-0"
140
3.0
141
12.0
290
     0
  0
SCALE
  5
117
102
{ACAD_REACTORS
330
F7
102
}
330
F7
100
AcDbScale
 70
     0
300
6" = 1'-0"
140
6.0
141
12.0
290
     0
  0
SCALE
  5
118
102
{ACAD_REACTORS
330
F7
102
}
330
F7
100
AcDbScale
 70
     0
300
1'-0" = 1'-0"
140
12.0
141
12.0
290
     0
  0
DICTIONARYVAR
  5
13D
102
{ACAD_REACTORS
330
139
102
}
330
139
100
DictionaryVariables
280
     0
  1
2
  0
DICTIONARYVAR
  5
13E
102
{ACAD_REACTORS
330
139
102
}
330
139
100
DictionaryVariables
280
     0
  1
1
  0
ENDSEC
  0
EOF
