999
NT  : 16.0 - 919
  0
SECTION
  2
HEADER
  9
$ACADVER
  1
AC1006
  9
$INSBASE
 10
0.000000000
 20
0.000000000
  9
$EXTMIN
 10
-125.576467651
 20
-74.101838864
  9
$EXTMAX
 10
146.351371632
 20
92.479455932
  9
$LIMMIN
 10
-125.576467651
 20
-74.101838864
  9
$LIMMAX
 10
146.351371632
 20
92.479455932
  9
$AUNITS
 70
     2
  9
$ANGBASE
 50
0.000
  9
$ANGDIR
 70
     0
  0
ENDSEC
  0
SECTION
  2
TABLES
  0
TABLE
  2
LTYPE
 70
     8
  0
LTYPE
  2
PUNKT
 70
    64
  3
..............
 72
    65
 73
     2
 40
1.500
 49
0.700
 49
-0.800
  0
LTYPE
  2
GESTRICHELT
 70
    64
  3
-- -- -- -- --
 72
    65
 73
     7
 40
2.800
 49
0.900
 49
0.000
 49
0.900
 49
0.000
 49
0.200
 49
0.000
 49
-0.800
  0
LTYPE
  2
STRICHPUNKT
 70
    64
  3
--.--.--.--.--
 72
    65
 73
     4
 40
8.800
 49
5.500
 49
-1.300
 49
0.700
 49
-1.300
  0
LTYPE
  2
STRICHPUNKT
 70
    64
  3
--.--.--.--.--
 72
    65
 73
     4
 40
8.800
 49
5.500
 49
-1.300
 49
0.700
 49
-1.300
  0
LTYPE
  2
STRICHPUNKT
 70
    64
  3
--.--.--.--.--
 72
    65
 73
     4
 40
8.800
 49
5.500
 49
-1.300
 49
0.700
 49
-1.300
  0
LTYPE
  2
PHANTOM
 70
    64
  3
--..--..--..--
 72
    65
 73
     6
 40
14.200
 49
7.000
 49
-1.800
 49
0.900
 49
-1.800
 49
0.900
 49
-1.800
  0
LTYPE
  2
PHANTOM
 70
    64
  3
--..--..--..--
 72
    65
 73
     6
 40
14.200
 49
7.000
 49
-1.800
 49
0.900
 49
-1.800
 49
0.900
 49
-1.800
  0
LTYPE
  2
PHANTOM
 70
    64
  3
--..--..--..--
 72
    65
 73
     6
 40
14.200
 49
7.000
 49
-1.800
 49
0.900
 49
-1.800
 49
0.900
 49
-1.800
  0
ENDTAB
  0
ENDSEC
  0
SECTION
  2
BLOCKS
  0
ENDSEC
  0
SECTION
  2
ENTITIES
  0
LINE
  8
UNSICHT
  6
STRICHPUNKT
 62
     1
 10
30.303332100
 20
-61.500000000
 11
29.901408311
 21
-63.000000000
  0
LINE
  8
UNSICHT
  6
STRICHPUNKT
 62
     1
 10
30.428203230
 20
61.500000000
 11
30.026279442
 21
63.000000000
  0
LINE
  8
AUFNAHME
  6
CONTINUOUS
 62
     7
 10
42.518611496
 20
76.005000000
 11
36.931344810
 21
76.005000000
  0
LINE
  8
AUFNAHME
  6
CONTINUOUS
 62
     7
 10
59.100000000
 20
76.005000000
 11
53.493309641
 21
76.005000000
  0
LINE
  8
AUFNAHME
  6
CONTINUOUS
 62
     7
 10
52.245302747
 20
75.798117054
 11
51.100000000
 21
76.105000000
  0
LINE
  8
AUFNAHME
  6
CONTINUOUS
 62
     7
 10
44.900000000
 20
76.105000000
 11
43.754855412
 21
75.798159433
  0
LINE
  8
AUFNAHME
  6
CONTINUOUS
 62
     7
 10
32.087320508
 20
-58.900000000
 11
43.246152423
 21
-61.890000000
  0
LINE
  8
AUFNAHME
  6
CONTINUOUS
 62
     7
 10
52.753847577
 20
-61.890000000
 11
63.809323187
 21
-58.900000000
  0
LINE
  8
AUFNAHME
  6
CONTINUOUS
 62
     7
 10
35.950000000
 20
67.505000000
 11
35.950000000
 21
56.307626094
  0
LINE
  8
AUFNAHME
  6
CONTINUOUS
 62
     7
 10
60.050000000
 20
49.850050556
 11
60.050000000
 21
67.505000000
  0
LINE
  8
AUFNAHME
  6
CONTINUOUS
 62
     7
 10
0.000000000
 20
-31.000000000
 11
0.200000000
 21
-31.000000000
  0
LINE
  8
AUFNAHME
  6
CONTINUOUS
 62
     7
 10
0.200000000
 20
31.000000000
 11
0.000000000
 21
31.000000000
  0
LINE
  8
AUFNAHME
  6
CONTINUOUS
 62
     7
 10
66.680384758
 20
-58.900000000
 11
67.200000000
 21
-58.000000000
  0
CIRCLE
  8
ZAPFEN
  6
CONTINUOUS
 62
     4
 10
-15.500000000
 20
0.000000000
 40
5.541287953
  0
CIRCLE
  8
ZAPFEN
  6
CONTINUOUS
 62
     4
 10
-15.500000000
 20
0.000000000
 40
4.500000000
  0
LINE
  8
AUFNAHME
  6
CONTINUOUS
 62
     7
 10
36.931344810
 20
75.992230019
 11
36.935144694
 21
75.990733995
  0
ARC
  8
AUFNAHME
  6
CONTINUOUS
 62
     7
 10
59.100000000
 20
75.105000000
 40
0.900000000
 50
0.000000000
 51
90.000000000
  0
LINE
  8
AUFNAHME
  6
CONTINUOUS
 62
     7
 10
48.000000000
 20
75.487753492
 11
47.098740591
 21
75.501763070
  0
LINE
  8
AUFNAHME
  6
CONTINUOUS
 62
     7
 10
47.098740591
 20
75.501763070
 11
46.197481183
 21
75.543751249
  0
LINE
  8
AUFNAHME
  6
CONTINUOUS
 62
     7
 10
46.197481183
 20
75.543751249
 11
45.372267110
 21
75.606631915
  0
LINE
  8
AUFNAHME
  6
CONTINUOUS
 62
     7
 10
45.372267110
 20
75.606631915
 11
44.598457679
 21
75.686680729
  0
LINE
  8
AUFNAHME
  6
CONTINUOUS
 62
     7
 10
44.598457679
 20
75.686680729
 11
43.932189699
 21
75.771825599
  0
LINE
  8
AUFNAHME
  6
CONTINUOUS
 62
     7
 10
43.932189699
 20
75.771825599
 11
43.363115751
 21
75.856332091
  0
LINE
  8
AUFNAHME
  6
CONTINUOUS
 62
     7
 10
43.363115751
 20
75.856332091
 11
42.935751945
 21
75.926872958
  0
LINE
  8
AUFNAHME
  6
CONTINUOUS
 62
     7
 10
42.935751945
 20
75.926872958
 11
42.642880519
 21
75.978695546
  0
LINE
  8
AUFNAHME
  6
CONTINUOUS
 62
     7
 10
42.642880519
 20
75.978695546
 11
42.510863938
 21
76.002976451
  0
LINE
  8
AUFNAHME
  6
CONTINUOUS
 62
     7
 10
42.510863938
 20
76.002976451
 11
42.518611496
 21
76.001537409
  0
ARC
  8
AUFNAHME
  6
CONTINUOUS
 62
     7
 10
47.943184277
 20
105.591067714
 40
30.103367837
 50
-89.891862496
 51
-79.375658812
  0
LINE
  8
AUFNAHME
  6
CONTINUOUS
 62
     7
 10
50.799512926
 20
68.105487074
 11
51.400000000
 21
67.505000000
  0
LINE
  8
AUFNAHME
  6
CONTINUOUS
 62
     7
 10
50.799512926
 20
68.105487074
 11
50.548580521
 21
69.605000000
  0
LINE
  8
AUFNAHME
  6
CONTINUOUS
 62
     7
 10
50.548580521
 20
69.605000000
 11
45.451419479
 21
69.605000000
  0
LINE
  8
AUFNAHME
  6
CONTINUOUS
 62
     7
 10
45.451419479
 20
69.605000000
 11
45.182523803
 21
67.998142801
  0
LINE
  8
AUFNAHME
  6
CONTINUOUS
 62
     7
 10
44.491163094
 20
67.505000000
 11
45.182523803
 21
67.998142801
  0
LINE
  8
AUFNAHME
  6
CONTINUOUS
 62
     7
 10
60.000000000
 20
67.505000000
 11
60.000000000
 21
75.105000000
  0
LINE
  8
AUFNAHME
  6
CONTINUOUS
 62
     7
 10
26.062781413
 20
67.505000000
 11
25.452897657
 21
79.142275306
  0
LINE
  8
AUFNAHME
  6
CONTINUOUS
 62
     7
 10
35.781057016
 20
77.943066099
 11
36.900000000
 21
76.005000000
  0
LINE
  8
AUFNAHME
  6
CONTINUOUS
 62
     7
 10
26.039036514
 20
79.660847161
 11
35.781057016
 21
77.943066099
  0
LINE
  8
AUFNAHME
  6
CONTINUOUS
 62
     7
 10
60.050000000
 20
67.505000000
 11
51.400000000
 21
67.505000000
  0
LINE
  8
AUFNAHME
  6
CONTINUOUS
 62
     7
 10
44.491163094
 20
67.505000000
 11
26.062781413
 21
67.505000000
  0
LINE
  8
AUFNAHME
  6
CONTINUOUS
 62
     7
 10
25.599757021
 20
79.956565834
 11
26.254807591
 21
79.622800898
  0
ARC
  8
AUFNAHME
  6
CONTINUOUS
 62
     7
 10
25.418160821
 20
79.600163224
 40
0.400000000
 50
63.000000000
 51
-177.000000000
  0
LINE
  8
AUFNAHME
  6
CONTINUOUS
 62
     7
 10
25.521808378
 20
69.979520981
 11
25.018709007
 21
79.579228842
  0
ARC
  8
AUFNAHME
  6
CONTINUOUS
 62
     7
 10
25.921260192
 20
70.000455363
 40
0.400000000
 50
-177.000000000
 51
-85.463540048
  0
LINE
  8
AUFNAHME
  6
CONTINUOUS
 62
     7
 10
48.000000000
 20
76.105000000
 11
44.900000000
 21
76.105000000
  0
LINE
  8
AUFNAHME
  6
CONTINUOUS
 62
     7
 10
51.100000000
 20
76.105000000
 11
48.000000000
 21
76.105000000
  0
LINE
  8
AUFNAHME
  6
CONTINUOUS
 62
     7
 10
30.555000000
 20
-2.502813417
 11
33.441751346
 21
-2.502813417
  0
LINE
  8
AUFNAHME
  6
CONTINUOUS
 62
     7
 10
33.441751346
 20
-2.502813417
 11
34.888375673
 21
0.002813417
  0
LINE
  8
AUFNAHME
  6
CONTINUOUS
 62
     7
 10
34.888375673
 20
0.002813417
 11
33.445000000
 21
2.502813417
  0
LINE
  8
AUFNAHME
  6
CONTINUOUS
 62
     7
 10
33.445000000
 20
2.502813417
 11
30.558248654
 21
2.502813417
  0
LINE
  8
AUFNAHME
  6
CONTINUOUS
 62
     7
 10
30.558248654
 20
2.502813417
 11
29.111624327
 21
-0.002813417
  0
LINE
  8
AUFNAHME
  6
CONTINUOUS
 62
     7
 10
29.111624327
 20
-0.002813417
 11
30.555000000
 21
-2.502813417
  0
LINE
  8
AUFNAHME
  6
CONTINUOUS
 62
     7
 10
52.753847577
 20
-61.890000000
 11
43.246152423
 21
-61.890000000
  0
LINE
  8
AUFNAHME
  6
CONTINUOUS
 62
     7
 10
31.500000000
 20
57.500000000
 11
30.428203230
 21
61.500000000
  0
LINE
  8
AUFNAHME
  6
CONTINUOUS
 62
     7
 10
40.490118082
 20
55.091105120
 11
31.500000000
 21
57.500000000
  0
LINE
  8
AUFNAHME
  6
CONTINUOUS
 62
     7
 10
40.490118082
 20
55.091105120
 11
38.000000000
 21
54.845236803
  0
LINE
  8
AUFNAHME
  6
CONTINUOUS
 62
     7
 10
38.000000000
 20
54.845236803
 11
17.200000000
 21
54.845236803
  0
LINE
  8
AUFNAHME
  6
CONTINUOUS
 62
     7
 10
17.200000000
 20
54.845236803
 11
16.450000000
 21
54.414497149
  0
LINE
  8
AUFNAHME
  6
CONTINUOUS
 62
     7
 10
16.450000000
 20
54.414497149
 11
0.700000000
 21
54.414497149
  0
LINE
  8
AUFNAHME
  6
CONTINUOUS
 62
     7
 10
0.700000000
 20
61.500000000
 11
0.700000000
 21
54.414497149
  0
LINE
  8
AUFNAHME
  6
CONTINUOUS
 62
     7
 10
0.700000000
 20
61.500000000
 11
30.428203230
 21
61.500000000
  0
LINE
  8
AUFNAHME
  6
CONTINUOUS
 62
     7
 10
0.200000000
 20
54.126587736
 11
0.200000000
 21
61.000000000
  0
LINE
  8
AUFNAHME
  6
CONTINUOUS
 62
     7
 10
0.700000000
 20
61.500000000
 11
0.200000000
 21
61.000000000
  0
LINE
  8
AUFNAHME
  6
CONTINUOUS
 62
     7
 10
0.200000000
 20
54.126587736
 11
0.700000000
 21
54.414497149
  0
LINE
  8
AUFNAHME
  6
CONTINUOUS
 62
     7
 10
0.200000000
 20
-54.126587737
 11
0.200000000
 21
54.126587736
  0
LINE
  8
AUFNAHME
  6
CONTINUOUS
 62
     7
 10
0.700000000
 20
54.414497149
 11
0.700000000
 21
-54.414497149
  0
LINE
  8
AUFNAHME
  6
CONTINUOUS
 62
     7
 10
0.200000000
 20
-54.126587737
 11
0.700000000
 21
-54.414497149
  0
LINE
  8
AUFNAHME
  6
CONTINUOUS
 62
     7
 10
16.450000000
 20
-54.414497149
 11
16.450000000
 21
54.414497149
  0
LINE
  8
AUFNAHME
  6
CONTINUOUS
 62
     7
 10
16.450000000
 20
-54.414497149
 11
0.700000000
 21
-54.414497149
  0
LINE
  8
AUFNAHME
  6
CONTINUOUS
 62
     7
 10
17.200000000
 20
-54.845236803
 11
16.450000000
 21
-54.414497149
  0
LINE
  8
AUFNAHME
  6
CONTINUOUS
 62
     7
 10
17.200000000
 20
-54.845236803
 11
17.200000000
 21
54.845236803
  0
LINE
  8
AUFNAHME
  6
CONTINUOUS
 62
     7
 10
0.200000000
 20
-61.000000000
 11
0.200000000
 21
-54.126587737
  0
LINE
  8
AUFNAHME
  6
CONTINUOUS
 62
     7
 10
0.700000000
 20
-54.414497149
 11
0.700000000
 21
-61.500000000
  0
LINE
  8
AUFNAHME
  6
CONTINUOUS
 62
     7
 10
0.200000000
 20
-61.000000000
 11
0.700000000
 21
-61.500000000
  0
LINE
  8
AUFNAHME
  6
CONTINUOUS
 62
     7
 10
38.000000000
 20
-54.845236803
 11
17.200000000
 21
-54.845236803
  0
LINE
  8
AUFNAHME
  6
CONTINUOUS
 62
     7
 10
63.158548116
 20
-57.125833514
 11
54.659514235
 21
-56.404763272
  0
LINE
  8
AUFNAHME
  6
CONTINUOUS
 62
     7
 10
54.659514235
 20
-56.404763272
 11
46.271383126
 21
-55.644387748
  0
LINE
  8
AUFNAHME
  6
CONTINUOUS
 62
     7
 10
46.271383126
 20
-55.644387748
 11
38.000000000
 21
-54.845236803
  0
LINE
  8
AUFNAHME
  6
CONTINUOUS
 62
     7
 10
66.680384758
 20
-58.900000000
 11
31.000000000
 21
-58.900000000
  0
LINE
  8
AUFNAHME
  6
CONTINUOUS
 62
     7
 10
30.303332100
 20
-61.500000000
 11
31.000000000
 21
-58.900000000
  0
LINE
  8
AUFNAHME
  6
CONTINUOUS
 62
     7
 10
30.303332100
 20
-61.500000000
 11
0.700000000
 21
-61.500000000
  0
LINE
  8
AUFNAHME
  6
CONTINUOUS
 62
     7
 10
38.000000000
 20
-54.845236803
 11
38.000000000
 21
54.845236803
  0
LINE
  8
AUFNAHME
  6
CONTINUOUS
 62
     7
 10
64.884468640
 20
48.554658588
 11
40.490118082
 21
55.091105120
  0
LINE
  8
AUFNAHME
  6
CONTINUOUS
 62
     7
 10
64.884468640
 20
-56.176008465
 11
64.884468640
 21
48.554658588
  0
ARC
  8
AUFNAHME
  6
CONTINUOUS
 62
     7
 10
63.303510106
 20
-55.346251296
 40
1.785476644
 50
-94.656942605
 51
-27.692481628
  0
CIRCLE
  8
AUFNAHME
  6
CONTINUOUS
 62
     7
 10
32.000000000
 20
0.000000000
 40
5.250000000
  0
LINE
  8
AUFNAHME
  6
CONTINUOUS
 62
     7
 10
0.000000000
 20
-31.000000000
 11
0.000000000
 21
31.000000000
  0
LINE
  8
AUFNAHME
  6
CONTINUOUS
 62
     7
 10
64.890598923
 20
-56.167784814
 11
64.884468640
 21
-56.176008465
  0
LINE
  8
AUFNAHME
  6
CONTINUOUS
 62
     7
 10
67.200000000
 20
-53.025937050
 11
67.200000000
 21
47.934213830
  0
LINE
  8
AUFNAHME
  6
CONTINUOUS
 62
     7
 10
67.200000000
 20
-53.025937050
 11
64.890598923
 21
-56.167784814
  0
LINE
  8
AUFNAHME
  6
CONTINUOUS
 62
     7
 10
67.200000000
 20
47.934213830
 11
64.884468640
 21
48.554658588
  0
LINE
  8
AUFNAHME
  6
CONTINUOUS
 62
     7
 10
67.200000000
 20
-58.000000000
 11
67.200000000
 21
-53.025937050
  0
LINE
  8
MASS
  6
CONTINUOUS
 62
     4
 10
0.000000000
 20
87.846305847
 11
0.000000000
 21
31.000000000
  0
LINE
  8
MASS
  6
CONTINUOUS
 62
     4
 10
0.000000000
 20
85.846305847
 11
3.499999996
 21
86.296305881
  0
LINE
  8
MASS
  6
CONTINUOUS
 62
     4
 10
3.499999996
 20
86.296305881
 11
3.500000004
 21
85.396305881
  0
LINE
  8
MASS
  6
CONTINUOUS
 62
     4
 10
3.500000004
 20
85.396305881
 11
0.000000000
 21
85.846305847
  0
LINE
  8
MASS
  6
CONTINUOUS
 62
     4
 10
3.400000000
 20
85.846305880
 11
0.100000000
 21
85.846305848
  0
LINE
  8
MASS
  6
CONTINUOUS
 62
     4
 10
3.400000002
 20
85.646305880
 11
1.655555557
 21
85.646305863
  0
LINE
  8
MASS
  6
CONTINUOUS
 62
     4
 10
3.399999998
 20
86.046305880
 11
1.655555554
 21
86.046305863
  0
LINE
  8
MASS
  6
CONTINUOUS
 62
     4
 10
3.400000004
 20
85.446305880
 11
3.211111115
 21
85.446305878
  0
LINE
  8
MASS
  6
CONTINUOUS
 62
     4
 10
3.399999996
 20
86.246305880
 11
3.211111107
 21
86.246305878
  0
LINE
  8
MASS
  6
CONTINUOUS
 62
     4
 10
24.981839179
 20
87.846306089
 11
24.981839179
 21
79.600163224
  0
LINE
  8
MASS
  6
CONTINUOUS
 62
     4
 10
24.981839179
 20
85.846306089
 11
21.481839183
 21
85.396306055
  0
LINE
  8
MASS
  6
CONTINUOUS
 62
     4
 10
21.481839183
 20
85.396306055
 11
21.481839175
 21
86.296306055
  0
LINE
  8
MASS
  6
CONTINUOUS
 62
     4
 10
21.481839175
 20
86.296306055
 11
24.981839179
 21
85.846306089
  0
LINE
  8
MASS
  6
CONTINUOUS
 62
     4
 10
21.581839179
 20
85.846306056
 11
24.881839179
 21
85.846306088
  0
LINE
  8
MASS
  6
CONTINUOUS
 62
     4
 10
21.581839177
 20
86.046306056
 11
23.326283621
 21
86.046306073
  0
LINE
  8
MASS
  6
CONTINUOUS
 62
     4
 10
21.581839181
 20
85.646306056
 11
23.326283625
 21
85.646306073
  0
LINE
  8
MASS
  6
CONTINUOUS
 62
     4
 10
21.581839175
 20
86.246306056
 11
21.770728064
 21
86.246306058
  0
LINE
  8
MASS
  6
CONTINUOUS
 62
     4
 10
21.581839183
 20
85.446306056
 11
21.770728072
 21
85.446306058
  0
LINE
  8
MASS
  6
CONTINUOUS
 62
     4
 10
3.500000000
 20
85.846305881
 11
21.481839179
 21
85.846306055
  0
TEXT
  8
MASS
  6
CONTINUOUS
 62
     4
 10
10.935606796
 20
87.346305953
 40
3.500000000
  1
25
 50
0.000000554
 41
1.000
 51
0.000000000
  7
STANDARD
  0
LINE
  8
MASS
  6
CONTINUOUS
 62
     4
 10
0.000000000
 20
-74.468688965
 11
0.000000000
 21
-31.000000000
  0
LINE
  8
MASS
  6
CONTINUOUS
 62
     4
 10
0.000000000
 20
-72.468688965
 11
3.499999994
 21
-72.018688915
  0
LINE
  8
MASS
  6
CONTINUOUS
 62
     4
 10
3.499999994
 20
-72.018688915
 11
3.500000006
 21
-72.918688915
  0
LINE
  8
MASS
  6
CONTINUOUS
 62
     4
 10
3.500000006
 20
-72.918688915
 11
0.000000000
 21
-72.468688965
  0
LINE
  8
MASS
  6
CONTINUOUS
 62
     4
 10
3.400000000
 20
-72.468688917
 11
0.100000000
 21
-72.468688963
  0
LINE
  8
MASS
  6
CONTINUOUS
 62
     4
 10
3.400000003
 20
-72.668688917
 11
1.655555558
 21
-72.668688941
  0
LINE
  8
MASS
  6
CONTINUOUS
 62
     4
 10
3.399999997
 20
-72.268688917
 11
1.655555553
 21
-72.268688941
  0
LINE
  8
MASS
  6
CONTINUOUS
 62
     4
 10
3.400000006
 20
-72.868688917
 11
3.211111117
 21
-72.868688919
  0
LINE
  8
MASS
  6
CONTINUOUS
 62
     4
 10
3.399999994
 20
-72.068688917
 11
3.211111105
 21
-72.068688919
  0
LINE
  8
MASS
  6
CONTINUOUS
 62
     4
 10
67.200000000
 20
-74.468688011
 11
67.200000000
 21
-58.000000000
  0
LINE
  8
MASS
  6
CONTINUOUS
 62
     4
 10
67.200000000
 20
-72.468688011
 11
63.700000006
 21
-72.918688061
  0
LINE
  8
MASS
  6
CONTINUOUS
 62
     4
 10
63.700000006
 20
-72.918688061
 11
63.699999994
 21
-72.018688061
  0
LINE
  8
MASS
  6
CONTINUOUS
 62
     4
 10
63.699999994
 20
-72.018688061
 11
67.200000000
 21
-72.468688011
  0
LINE
  8
MASS
  6
CONTINUOUS
 62
     4
 10
63.800000000
 20
-72.468688059
 11
67.100000000
 21
-72.468688013
  0
LINE
  8
MASS
  6
CONTINUOUS
 62
     4
 10
63.799999997
 20
-72.268688059
 11
65.544444442
 21
-72.268688035
  0
LINE
  8
MASS
  6
CONTINUOUS
 62
     4
 10
63.800000003
 20
-72.668688059
 11
65.544444447
 21
-72.668688035
  0
LINE
  8
MASS
  6
CONTINUOUS
 62
     4
 10
63.799999994
 20
-72.068688059
 11
63.988888883
 21
-72.068688057
  0
LINE
  8
MASS
  6
CONTINUOUS
 62
     4
 10
63.800000006
 20
-72.868688059
 11
63.988888895
 21
-72.868688057
  0
LINE
  8
MASS
  6
CONTINUOUS
 62
     4
 10
3.500000000
 20
-72.468688915
 11
63.700000000
 21
-72.468688061
  0
TEXT
  8
MASS
  6
CONTINUOUS
 62
     4
 10
30.376717978
 20
-70.968688534
 40
3.500000000
  1
67.2
 50
0.000000813
 41
1.000
 51
0.000000000
  7
STANDARD
  0
LINE
  8
UNSICHT
  6
STRICHPUNKT
 62
     1
 10
0.200000000
 20
-63.000000000
 11
29.901408311
 21
-63.000000000
  0
LINE
  8
UNSICHT
  6
STRICHPUNKT
 62
     1
 10
0.200000000
 20
-61.000000000
 11
0.200000000
 21
-63.000000000
  0
ARC
  8
ZAPFEN
  6
CONTINUOUS
 62
     4
 10
-0.300000000
 20
-18.200000000
 40
0.500000000
 50
53.130102354
 51
105.000000000
  0
ARC
  8
ZAPFEN
  6
CONTINUOUS
 62
     4
 10
-0.300000000
 20
18.200000000
 40
0.500000000
 50
-105.000000000
 51
-53.130102354
  0
ARC
  8
ZAPFEN
  6
CONTINUOUS
 62
     4
 10
-39.018504542
 20
-17.000000000
 40
1.000000000
 50
-150.000000000
 51
-80.000000000
  0
ARC
  8
ZAPFEN
  6
CONTINUOUS
 62
     4
 10
-39.018504542
 20
17.000000000
 40
1.000000000
 50
80.000000000
 51
150.000000000
  0
LINE
  8
ZAPFEN
  6
CONTINUOUS
 62
     4
 10
-35.000000000
 20
-18.000000000
 11
-1.485441491
 21
-18.000000000
  0
LINE
  8
ZAPFEN
  6
CONTINUOUS
 62
     4
 10
-1.485441491
 20
18.000000000
 11
-35.000000000
 21
18.000000000
  0
LINE
  8
ZAPFEN
  6
CONTINUOUS
 62
     4
 10
-35.000000000
 20
18.000000000
 11
-37.187486792
 21
17.692568780
  0
LINE
  8
ZAPFEN
  6
CONTINUOUS
 62
     4
 10
-37.187486792
 20
-17.692568780
 11
-35.000000000
 21
-18.000000000
  0
LINE
  8
ZAPFEN
  6
CONTINUOUS
 62
     4
 10
-1.485441491
 20
-18.000000000
 11
-0.429409523
 21
-17.717037087
  0
LINE
  8
ZAPFEN
  6
CONTINUOUS
 62
     4
 10
-0.429409523
 20
17.717037087
 11
-1.485441491
 21
18.000000000
  0
LINE
  8
ZAPFEN
  6
CONTINUOUS
 62
     4
 10
-38.844856365
 20
-17.984807753
 11
-37.187486792
 21
-17.692568780
  0
LINE
  8
ZAPFEN
  6
CONTINUOUS
 62
     4
 10
-37.187486792
 20
17.692568780
 11
-38.844856365
 21
17.984807753
  0
LINE
  8
ZAPFEN
  6
CONTINUOUS
 62
     4
 10
-39.884529946
 20
17.500000000
 11
-40.000000000
 21
17.300000000
  0
LINE
  8
ZAPFEN
  6
CONTINUOUS
 62
     4
 10
-40.000000000
 20
-17.300000000
 11
-39.884529946
 21
-17.500000000
  0
LINE
  8
ZAPFEN
  6
CONTINUOUS
 62
     4
 10
-35.000000000
 20
0.000000000
 11
-35.000000000
 21
18.000000000
  0
LINE
  8
ZAPFEN
  6
CONTINUOUS
 62
     4
 10
-35.000000000
 20
-18.000000000
 11
-35.000000000
 21
0.000000000
  0
LINE
  8
ZAPFEN
  6
CONTINUOUS
 62
     4
 10
-1.485441491
 20
-18.000000000
 11
-1.485441491
 21
18.000000000
  0
LINE
  8
ZAPFEN
  6
CONTINUOUS
 62
     4
 10
-37.187486792
 20
-17.692568780
 11
-37.187486792
 21
17.692568780
  0
LINE
  8
ZAPFEN
  6
CONTINUOUS
 62
     4
 10
-40.000000000
 20
-17.300000000
 11
-40.000000000
 21
17.300000000
  0
LINE
  8
ZAPFEN
  6
STRICHPUNKT
 62
     4
 10
48.000000000
 20
-63.889405719
 11
48.000000000
 21
77.358970273
  0
LINE
  8
UNSICHT
  6
GESTRICHELT
 62
     1
 10
35.501000000
 20
-54.250000000
 11
35.501000000
 21
56.317873208
  0
LINE
  8
UNSICHT
  6
GESTRICHELT
 62
     1
 10
63.000000000
 20
-54.250000000
 11
33.000000000
 21
-54.250000000
  0
LINE
  8
UNSICHT
  6
GESTRICHELT
 62
     1
 10
33.000000000
 20
-54.250000000
 11
33.000000000
 21
-58.900000000
  0
LINE
  8
UNSICHT
  6
GESTRICHELT
 62
     1
 10
63.000000000
 20
-58.900000000
 11
63.000000000
 21
-54.250000000
  0
LINE
  8
UNSICHT
  6
GESTRICHELT
 62
     1
 10
60.501000000
 20
49.619143397
 11
60.501000000
 21
-54.250000000
  0
TEXT
  8
TEXT
  6
GESTRICHELT
 62
     4
 10
6.559534043
 20
-59.959005531
 40
3.500000000
  1
310.608
 50
0.000000000
 41
1.000
 51
0.000000000
  7
STANDARD
  0
LINE
  8
ZAPFEN
  6
STRICHPUNKT
 62
     4
 10
-3.061496027
 20
4.597916568
 11
57.920970156
 21
51.539494877
  0
LINE
  8
UNSICHT
  6
GESTRICHELT
 62
     1
 10
-2.755503897
 20
7.994298110
 11
53.787844170
 21
51.527990154
  0
LINE
  8
UNSICHT
  6
GESTRICHELT
 62
     1
 10
-0.230902104
 20
3.628653414
 11
59.870522174
 21
49.898141495
  0
LINE
  8
UNSICHT
  6
GESTRICHELT
 62
     1
 10
-2.754276418
 20
7.994298110
 11
1.866485900
 21
0.000000000
  0
LINE
  8
UNSICHT
  6
GESTRICHELT
 62
     1
 10
-2.754276418
 20
-8.022187791
 11
1.866485900
 21
0.000000000
  0
LINE
  8
UNSICHT
  6
GESTRICHELT
 62
     1
 10
-2.754276418
 20
7.994298110
 11
-2.754276418
 21
-8.022187791
  0
LINE
  8
UNSICHT
  6
GESTRICHELT
 62
     1
 10
-39.747149055
 20
7.994298110
 11
-2.754276418
 21
7.994298110
  0
LINE
  8
UNSICHT
  6
GESTRICHELT
 62
     1
 10
-39.747149055
 20
-8.022187791
 11
-2.754276418
 21
-8.022187791
  0
LINE
  8
ZAPFEN
  6
STRICHPUNKT
 62
     4
 10
-43.836737500
 20
0.000000000
 11
69.484804297
 21
0.000000000
  0
LINE
  8
ZAPFEN
  6
STRICHPUNKT
 62
     4
 10
32.000000000
 20
-6.931158984
 11
32.000000000
 21
8.113582031
  0
LINE
  8
MASS
  6
CONTINUOUS
 62
     4
 10
-50.731946945
 20
-18.000000000
 11
-35.000000000
 21
-18.000000000
  0
LINE
  8
MASS
  6
CONTINUOUS
 62
     4
 10
-48.731946945
 20
-18.000000000
 11
-49.181946945
 21
-14.500000000
  0
LINE
  8
MASS
  6
CONTINUOUS
 62
     4
 10
-49.181946945
 20
-14.500000000
 11
-48.281946945
 21
-14.500000000
  0
LINE
  8
MASS
  6
CONTINUOUS
 62
     4
 10
-48.281946945
 20
-14.500000000
 11
-48.731946945
 21
-18.000000000
  0
LINE
  8
MASS
  6
CONTINUOUS
 62
     4
 10
-48.731946945
 20
-14.600000000
 11
-48.731946945
 21
-17.900000000
  0
LINE
  8
MASS
  6
CONTINUOUS
 62
     4
 10
-48.531946945
 20
-14.600000000
 11
-48.531946945
 21
-16.344444444
  0
LINE
  8
MASS
  6
CONTINUOUS
 62
     4
 10
-48.931946945
 20
-14.600000000
 11
-48.931946945
 21
-16.344444444
  0
LINE
  8
MASS
  6
CONTINUOUS
 62
     4
 10
-48.331946945
 20
-14.600000000
 11
-48.331946945
 21
-14.788888889
  0
LINE
  8
MASS
  6
CONTINUOUS
 62
     4
 10
-49.131946945
 20
-14.600000000
 11
-49.131946945
 21
-14.788888889
  0
LINE
  8
MASS
  6
CONTINUOUS
 62
     4
 10
-50.731946945
 20
18.000000000
 11
-35.000000000
 21
18.000000000
  0
LINE
  8
MASS
  6
CONTINUOUS
 62
     4
 10
-48.731946945
 20
18.000000000
 11
-48.281946945
 21
14.500000000
  0
LINE
  8
MASS
  6
CONTINUOUS
 62
     4
 10
-48.281946945
 20
14.500000000
 11
-49.181946945
 21
14.500000000
  0
LINE
  8
MASS
  6
CONTINUOUS
 62
     4
 10
-49.181946945
 20
14.500000000
 11
-48.731946945
 21
18.000000000
  0
LINE
  8
MASS
  6
CONTINUOUS
 62
     4
 10
-48.731946945
 20
14.600000000
 11
-48.731946945
 21
17.900000000
  0
LINE
  8
MASS
  6
CONTINUOUS
 62
     4
 10
-48.931946945
 20
14.600000000
 11
-48.931946945
 21
16.344444444
  0
LINE
  8
MASS
  6
CONTINUOUS
 62
     4
 10
-48.531946945
 20
14.600000000
 11
-48.531946945
 21
16.344444444
  0
LINE
  8
MASS
  6
CONTINUOUS
 62
     4
 10
-49.131946945
 20
14.600000000
 11
-49.131946945
 21
14.788888889
  0
LINE
  8
MASS
  6
CONTINUOUS
 62
     4
 10
-48.331946945
 20
14.600000000
 11
-48.331946945
 21
14.788888889
  0
LINE
  8
MASS
  6
CONTINUOUS
 62
     4
 10
-48.731946945
 20
-14.500000000
 11
-48.731946945
 21
14.500000000
  0
TEXT
  8
MASS
  6
CONTINUOUS
 62
     4
 10
-50.231946945
 20
0.331405848
 40
3.500000000
  1
36
 50
90.000000000
 41
1.000
 51
0.000000000
  7
STANDARD
  0
CIRCLE
  8
MASS
  6
CONTINUOUS
 62
     4
 10
-51.481946945
 20
-1.918594152
 40
1.250000000
  0
LINE
  8
MASS
  6
CONTINUOUS
 62
     4
 10
-50.231946945
 20
-3.168594152
 11
-52.731946945
 21
-0.668594152
  0
LINE
  8
UNSICHT
  6
STRICHPUNKT
 62
     1
 10
0.200000000
 20
63.000000000
 11
30.026279442
 21
63.000000000
  0
LINE
  8
UNSICHT
  6
STRICHPUNKT
 62
     1
 10
0.200000000
 20
61.000000000
 11
0.200000000
 21
63.000000000
  0
LINE
  8
ZAPFEN
  6
STRICHPUNKT
 62
     4
 10
-15.500000000
 20
-6.855459432
 11
-15.500000000
 21
6.925264290
  0
LINE
  8
MASS
  6
CONTINUOUS
 62
     4
 10
-59.380978394
 20
-63.000000000
 11
0.200000000
 21
-63.000000000
  0
LINE
  8
MASS
  6
CONTINUOUS
 62
     4
 10
-57.380978394
 20
-63.000000000
 11
-57.830978394
 21
-59.500000000
  0
LINE
  8
MASS
  6
CONTINUOUS
 62
     4
 10
-57.830978394
 20
-59.500000000
 11
-56.930978394
 21
-59.500000000
  0
LINE
  8
MASS
  6
CONTINUOUS
 62
     4
 10
-56.930978394
 20
-59.500000000
 11
-57.380978394
 21
-63.000000000
  0
LINE
  8
MASS
  6
CONTINUOUS
 62
     4
 10
-57.380978394
 20
-59.600000000
 11
-57.380978394
 21
-62.900000000
  0
LINE
  8
MASS
  6
CONTINUOUS
 62
     4
 10
-57.180978394
 20
-59.600000000
 11
-57.180978394
 21
-61.344444444
  0
LINE
  8
MASS
  6
CONTINUOUS
 62
     4
 10
-57.580978394
 20
-59.600000000
 11
-57.580978394
 21
-61.344444444
  0
LINE
  8
MASS
  6
CONTINUOUS
 62
     4
 10
-56.980978394
 20
-59.600000000
 11
-56.980978394
 21
-59.788888889
  0
LINE
  8
MASS
  6
CONTINUOUS
 62
     4
 10
-57.780978394
 20
-59.600000000
 11
-57.780978394
 21
-59.788888889
  0
LINE
  8
MASS
  6
CONTINUOUS
 62
     4
 10
-59.380978394
 20
63.000000000
 11
0.200000000
 21
63.000000000
  0
LINE
  8
MASS
  6
CONTINUOUS
 62
     4
 10
-57.380978394
 20
63.000000000
 11
-56.930978394
 21
59.500000000
  0
LINE
  8
MASS
  6
CONTINUOUS
 62
     4
 10
-56.930978394
 20
59.500000000
 11
-57.830978394
 21
59.500000000
  0
LINE
  8
MASS
  6
CONTINUOUS
 62
     4
 10
-57.830978394
 20
59.500000000
 11
-57.380978394
 21
63.000000000
  0
LINE
  8
MASS
  6
CONTINUOUS
 62
     4
 10
-57.380978394
 20
59.600000000
 11
-57.380978394
 21
62.900000000
  0
LINE
  8
MASS
  6
CONTINUOUS
 62
     4
 10
-57.580978394
 20
59.600000000
 11
-57.580978394
 21
61.344444444
  0
LINE
  8
MASS
  6
CONTINUOUS
 62
     4
 10
-57.180978394
 20
59.600000000
 11
-57.180978394
 21
61.344444444
  0
LINE
  8
MASS
  6
CONTINUOUS
 62
     4
 10
-57.780978394
 20
59.600000000
 11
-57.780978394
 21
59.788888889
  0
LINE
  8
MASS
  6
CONTINUOUS
 62
     4
 10
-56.980978394
 20
59.600000000
 11
-56.980978394
 21
59.788888889
  0
LINE
  8
MASS
  6
CONTINUOUS
 62
     4
 10
-57.380978394
 20
-59.500000000
 11
-57.380978394
 21
59.500000000
  0
TEXT
  8
MASS
  6
CONTINUOUS
 62
     4
 10
-58.880978394
 20
-0.598282658
 40
3.500000000
  1
126
 50
90.000000000
 41
1.000
 51
0.000000000
  7
STANDARD
  0
CIRCLE
  8
MASS
  6
CONTINUOUS
 62
     4
 10
-60.130978394
 20
-2.848282658
 40
1.250000000
  0
LINE
  8
MASS
  6
CONTINUOUS
 62
     4
 10
-58.880978394
 20
-4.098282658
 11
-61.380978394
 21
-1.598282658
  0
LINE
  8
MASS
  6
CONTINUOUS
 62
     4
 10
85.155878528
 20
80.000165850
 11
25.081839179
 21
80.000163224
  0
LINE
  8
MASS
  6
CONTINUOUS
 62
     4
 10
83.155878528
 20
80.000165763
 11
83.605878681
 21
76.500165783
  0
LINE
  8
MASS
  6
CONTINUOUS
 62
     4
 10
83.605878681
 20
76.500165783
 11
82.705878681
 21
76.500165743
  0
LINE
  8
MASS
  6
CONTINUOUS
 62
     4
 10
82.705878681
 20
76.500165743
 11
83.155878528
 21
80.000165763
  0
LINE
  8
MASS
  6
CONTINUOUS
 62
     4
 10
83.155878677
 20
76.600165763
 11
83.155878533
 21
79.900165763
  0
LINE
  8
MASS
  6
CONTINUOUS
 62
     4
 10
82.955878677
 20
76.600165754
 11
82.955878601
 21
78.344610199
  0
LINE
  8
MASS
  6
CONTINUOUS
 62
     4
 10
83.355878677
 20
76.600165772
 11
83.355878601
 21
78.344610216
  0
LINE
  8
MASS
  6
CONTINUOUS
 62
     4
 10
82.755878677
 20
76.600165746
 11
82.755878669
 21
76.789054634
  0
LINE
  8
MASS
  6
CONTINUOUS
 62
     4
 10
83.555878677
 20
76.600165780
 11
83.555878669
 21
76.789054669
  0
LINE
  8
MASS
  6
CONTINUOUS
 62
     4
 10
83.155882375
 20
-8.000015919
 11
83.155878681
 21
76.500165763
  0
TEXT
  8
MASS
  6
CONTINUOUS
 62
     4
 10
81.761042726
 20
-5.178476988
 40
3.500000000
  1
150
 50
90.000002504
 41
1.000
 51
0.000000000
  7
STANDARD
  0
CIRCLE
  8
MASS
  6
CONTINUOUS
 62
     4
 10
80.511042825
 20
-7.428477043
 40
1.250000000
  0
LINE
  8
MASS
  6
CONTINUOUS
 62
     4
 10
81.761042879
 20
-8.678476988
 11
79.261042770
 21
-6.178477098
  0
TEXT
  8
MASS
  6
CONTINUOUS
 62
     4
 10
81.761042460
 20
0.908710512
 40
3.500000000
  1
-203
 50
90.000002504
 41
1.000
 51
0.000000000
  7
STANDARD
  0
ARC
  8
AUFNAHME
  6
CONTINUOUS
 62
     7
 10
25.952212425
 20
79.168443284
 40
0.500000000
 50
80.000000000
 51
-177.000000001
  0
ENDSEC
  0
EOF
