999
NT  : 16.0 - 919
  0
SECTION
  2
HEADER
  9
$ACADVER
  1
AC1006
  9
$INSBASE
 10
0.000000000
 20
0.000000000
  9
$EXTMIN
 10
-93.650476060
 20
-54.261944439
  9
$EXTMAX
 10
113.733461390
 20
72.780159493
  9
$LIMMIN
 10
-93.650476060
 20
-54.261944439
  9
$LIMMAX
 10
113.733461390
 20
72.780159493
  9
$AUNITS
 70
     2
  9
$ANGBASE
 50
0.000
  9
$ANGDIR
 70
     0
  0
ENDSEC
  0
SECTION
  2
TABLES
  0
TABLE
  2
LTYPE
 70
     8
  0
LTYPE
  2
PUNKT
 70
    64
  3
..............
 72
    65
 73
     2
 40
1.500
 49
0.700
 49
-0.800
  0
LTYPE
  2
GESTRICHELT
 70
    64
  3
-- -- -- -- --
 72
    65
 73
     7
 40
2.800
 49
0.900
 49
0.000
 49
0.900
 49
0.000
 49
0.200
 49
0.000
 49
-0.800
  0
LTYPE
  2
STRICHPUNKT
 70
    64
  3
--.--.--.--.--
 72
    65
 73
     4
 40
8.800
 49
5.500
 49
-1.300
 49
0.700
 49
-1.300
  0
LTYPE
  2
STRICHPUNKT
 70
    64
  3
--.--.--.--.--
 72
    65
 73
     4
 40
8.800
 49
5.500
 49
-1.300
 49
0.700
 49
-1.300
  0
LTYPE
  2
STRICHPUNKT
 70
    64
  3
--.--.--.--.--
 72
    65
 73
     4
 40
8.800
 49
5.500
 49
-1.300
 49
0.700
 49
-1.300
  0
LTYPE
  2
PHANTOM
 70
    64
  3
--..--..--..--
 72
    65
 73
     6
 40
14.200
 49
7.000
 49
-1.800
 49
0.900
 49
-1.800
 49
0.900
 49
-1.800
  0
LTYPE
  2
PHANTOM
 70
    64
  3
--..--..--..--
 72
    65
 73
     6
 40
14.200
 49
7.000
 49
-1.800
 49
0.900
 49
-1.800
 49
0.900
 49
-1.800
  0
LTYPE
  2
PHANTOM
 70
    64
  3
--..--..--..--
 72
    65
 73
     6
 40
14.200
 49
7.000
 49
-1.800
 49
0.900
 49
-1.800
 49
0.900
 49
-1.800
  0
ENDTAB
  0
ENDSEC
  0
SECTION
  2
BLOCKS
  0
ENDSEC
  0
SECTION
  2
ENTITIES
  0
LINE
  8
AUFNAHME
  6
CONTINUOUS
 62
     7
 10
36.352571515
 20
57.943066099
 11
37.471514499
 21
56.005000000
  0
LINE
  8
AUFNAHME
  6
CONTINUOUS
 62
     7
 10
37.471514499
 20
56.005000000
 11
43.078232203
 21
56.003753526
  0
ARC
  8
AUFNAHME
  6
CONTINUOUS
 62
     7
 10
48.621093252
 20
85.514017609
 40
30.026305048
 50
-100.637822399
 51
-90.094605533
  0
ARC
  8
AUFNAHME
  6
CONTINUOUS
 62
     7
 10
48.501581991
 20
85.731143782
 40
30.243471143
 50
-89.867513848
 51
-79.394315048
  0
LINE
  8
AUFNAHME
  6
CONTINUOUS
 62
     7
 10
54.067731407
 20
56.005000000
 11
59.639298066
 21
56.001562041
  0
ARC
  8
AUFNAHME
  6
CONTINUOUS
 62
     7
 10
59.678995806
 20
55.117100014
 40
0.885352466
 50
-1.010772671
 51
92.569909624
  0
LINE
  8
AUFNAHME
  6
CONTINUOUS
 62
     7
 10
60.571514499
 20
55.101353180
 11
60.571514499
 21
47.505000000
  0
LINE
  8
AUFNAHME
  6
CONTINUOUS
 62
     7
 10
60.571514499
 20
47.505000000
 11
52.080351404
 21
47.505000000
  0
LINE
  8
AUFNAHME
  6
CONTINUOUS
 62
     7
 10
52.080351404
 20
47.505000000
 11
51.388990696
 21
47.998142801
  0
LINE
  8
AUFNAHME
  6
CONTINUOUS
 62
     7
 10
51.388990696
 20
47.998142801
 11
51.120095020
 21
49.605000000
  0
LINE
  8
AUFNAHME
  6
CONTINUOUS
 62
     7
 10
51.120095020
 20
49.605000000
 11
46.022933978
 21
49.605000000
  0
LINE
  8
AUFNAHME
  6
CONTINUOUS
 62
     7
 10
46.022933978
 20
49.605000000
 11
45.772001572
 21
48.105487074
  0
LINE
  8
AUFNAHME
  6
CONTINUOUS
 62
     7
 10
45.772001572
 20
48.105487074
 11
45.171514499
 21
47.505000000
  0
LINE
  8
AUFNAHME
  6
CONTINUOUS
 62
     7
 10
45.171514499
 20
47.505000000
 11
26.634295912
 21
47.505000000
  0
LINE
  8
AUFNAHME
  6
CONTINUOUS
 62
     7
 10
26.634295912
 20
47.505000000
 11
26.024412156
 21
59.142275306
  0
ARC
  8
AUFNAHME
  6
CONTINUOUS
 62
     7
 10
26.523726924
 20
59.168443284
 40
0.500000000
 50
80.000000000
 51
-177.000000001
  0
LINE
  8
AUFNAHME
  6
CONTINUOUS
 62
     7
 10
36.352571515
 20
57.943066099
 11
37.471514499
 21
56.005000000
  0
LINE
  8
UNSICHT
  6
STRICHPUNKT
 62
     1
 10
0.000000000
 20
-42.500000000
 11
0.000000000
 21
-45.000000000
  0
LINE
  8
UNSICHT
  6
STRICHPUNKT
 62
     1
 10
30.053332100
 20
-43.000000000
 11
29.517433715
 21
-45.000000000
  0
LINE
  8
UNSICHT
  6
STRICHPUNKT
 62
     1
 10
0.000000000
 20
-45.000000000
 11
29.517433715
 21
-45.000000000
  0
LINE
  8
UNSICHT
  6
STRICHPUNKT
 62
     1
 10
30.178203230
 20
43.000000000
 11
29.642304845
 21
45.000000000
  0
LINE
  8
AUFNAHME
  6
CONTINUOUS
 62
     7
 10
-0.250000000
 20
-31.000000000
 11
0.000000000
 21
-31.000000000
  0
LINE
  8
AUFNAHME
  6
CONTINUOUS
 62
     7
 10
0.000000000
 20
31.000000000
 11
-0.250000000
 21
31.000000000
  0
LINE
  8
AUFNAHME
  6
CONTINUOUS
 62
     7
 10
66.719059892
 20
-40.400000000
 11
66.950000000
 21
-40.000000000
  0
ARC
  8
ZAPFEN
  6
CONTINUOUS
 62
     4
 10
-0.550000000
 20
-18.200000000
 40
0.500000000
 50
53.130102354
 51
105.000000000
  0
ARC
  8
ZAPFEN
  6
CONTINUOUS
 62
     4
 10
-0.550000000
 20
18.200000000
 40
0.500000000
 50
-105.000000000
 51
-53.130102354
  0
ARC
  8
ZAPFEN
  6
CONTINUOUS
 62
     4
 10
-39.268504542
 20
-17.000000000
 40
1.000000000
 50
-150.000000000
 51
-80.000000000
  0
ARC
  8
ZAPFEN
  6
CONTINUOUS
 62
     4
 10
-39.268504542
 20
17.000000000
 40
1.000000000
 50
80.000000000
 51
150.000000000
  0
LINE
  8
ZAPFEN
  6
CONTINUOUS
 62
     4
 10
-35.250000000
 20
-18.000000000
 11
-1.735441491
 21
-18.000000000
  0
LINE
  8
ZAPFEN
  6
CONTINUOUS
 62
     4
 10
-1.735441491
 20
18.000000000
 11
-35.250000000
 21
18.000000000
  0
LINE
  8
ZAPFEN
  6
CONTINUOUS
 62
     4
 10
-35.250000000
 20
18.000000000
 11
-37.437486792
 21
17.692568780
  0
LINE
  8
ZAPFEN
  6
CONTINUOUS
 62
     4
 10
-37.437486792
 20
-17.692568780
 11
-35.250000000
 21
-18.000000000
  0
LINE
  8
ZAPFEN
  6
CONTINUOUS
 62
     4
 10
-1.735441491
 20
-18.000000000
 11
-0.679409523
 21
-17.717037087
  0
LINE
  8
ZAPFEN
  6
CONTINUOUS
 62
     4
 10
-0.679409523
 20
17.717037087
 11
-1.735441491
 21
18.000000000
  0
LINE
  8
ZAPFEN
  6
CONTINUOUS
 62
     4
 10
-39.094856365
 20
-17.984807753
 11
-37.437486792
 21
-17.692568780
  0
LINE
  8
ZAPFEN
  6
CONTINUOUS
 62
     4
 10
-37.437486792
 20
17.692568780
 11
-39.094856365
 21
17.984807753
  0
LINE
  8
ZAPFEN
  6
CONTINUOUS
 62
     4
 10
-40.134529946
 20
17.500000000
 11
-40.250000000
 21
17.300000000
  0
LINE
  8
ZAPFEN
  6
CONTINUOUS
 62
     4
 10
-40.250000000
 20
-17.300000000
 11
-40.134529946
 21
-17.500000000
  0
LINE
  8
AUFNAHME
  6
CONTINUOUS
 62
     7
 10
59.800000000
 20
31.350050556
 11
59.800000000
 21
47.505000000
  0
LINE
  8
AUFNAHME
  6
CONTINUOUS
 62
     7
 10
44.326225437
 20
55.798120721
 11
45.471514499
 21
56.105000000
  0
LINE
  8
AUFNAHME
  6
CONTINUOUS
 62
     7
 10
51.671514499
 20
56.105000000
 11
52.818607109
 21
55.797637462
  0
LINE
  8
AUFNAHME
  6
CONTINUOUS
 62
     7
 10
31.837320508
 20
-40.400000000
 11
42.996152423
 21
-43.390000000
  0
LINE
  8
AUFNAHME
  6
CONTINUOUS
 62
     7
 10
52.503847577
 20
-43.390000000
 11
63.559262964
 21
-40.400000000
  0
LINE
  8
AUFNAHME
  6
CONTINUOUS
 62
     7
 10
31.250000000
 20
39.000000000
 11
30.178203230
 21
43.000000000
  0
LINE
  8
AUFNAHME
  6
CONTINUOUS
 62
     7
 10
48.636346229
 20
34.341342569
 11
31.250000000
 21
39.000000000
  0
LINE
  8
AUFNAHME
  6
CONTINUOUS
 62
     7
 10
48.636346229
 20
34.341342569
 11
44.945572735
 21
33.779493448
  0
LINE
  8
AUFNAHME
  6
CONTINUOUS
 62
     7
 10
44.945572735
 20
33.779493448
 11
41.316349062
 21
33.205313681
  0
LINE
  8
AUFNAHME
  6
CONTINUOUS
 62
     7
 10
41.316349062
 20
33.205313681
 11
37.750000000
 21
32.619012861
  0
LINE
  8
AUFNAHME
  6
CONTINUOUS
 62
     7
 10
37.750000000
 20
32.619012861
 11
16.950000000
 21
32.619012861
  0
LINE
  8
AUFNAHME
  6
CONTINUOUS
 62
     7
 10
16.950000000
 20
32.619012861
 11
16.200000000
 21
31.889457506
  0
LINE
  8
AUFNAHME
  6
CONTINUOUS
 62
     7
 10
16.200000000
 20
31.889457506
 11
0.500000000
 21
31.889457506
  0
LINE
  8
AUFNAHME
  6
CONTINUOUS
 62
     7
 10
0.500000000
 20
43.000000000
 11
0.500000000
 21
31.889457506
  0
LINE
  8
AUFNAHME
  6
CONTINUOUS
 62
     7
 10
0.500000000
 20
43.000000000
 11
30.178203230
 21
43.000000000
  0
LINE
  8
AUFNAHME
  6
CONTINUOUS
 62
     7
 10
0.000000000
 20
31.681027445
 11
0.000000000
 21
42.500000000
  0
LINE
  8
AUFNAHME
  6
CONTINUOUS
 62
     7
 10
0.500000000
 20
43.000000000
 11
0.000000000
 21
42.500000000
  0
LINE
  8
AUFNAHME
  6
CONTINUOUS
 62
     7
 10
0.000000000
 20
31.681027445
 11
0.500000000
 21
31.889457506
  0
LINE
  8
AUFNAHME
  6
CONTINUOUS
 62
     7
 10
16.950000000
 20
-32.619012861
 11
16.200000000
 21
-31.889457506
  0
LINE
  8
AUFNAHME
  6
CONTINUOUS
 62
     7
 10
16.200000000
 20
-31.889457506
 11
16.200000000
 21
31.889457506
  0
LINE
  8
AUFNAHME
  6
CONTINUOUS
 62
     7
 10
16.950000000
 20
-32.619012861
 11
16.950000000
 21
32.619012861
  0
LINE
  8
AUFNAHME
  6
CONTINUOUS
 62
     7
 10
0.000000000
 20
-31.681027445
 11
0.000000000
 21
31.681027445
  0
LINE
  8
AUFNAHME
  6
CONTINUOUS
 62
     7
 10
0.500000000
 20
31.889457506
 11
0.500000000
 21
-31.889457506
  0
LINE
  8
AUFNAHME
  6
CONTINUOUS
 62
     7
 10
0.000000000
 20
-31.681027445
 11
0.500000000
 21
-31.889457506
  0
LINE
  8
AUFNAHME
  6
CONTINUOUS
 62
     7
 10
16.200000000
 20
-31.889457506
 11
0.500000000
 21
-31.889457506
  0
LINE
  8
AUFNAHME
  6
CONTINUOUS
 62
     7
 10
37.750000000
 20
-32.619012861
 11
16.950000000
 21
-32.619012861
  0
LINE
  8
AUFNAHME
  6
CONTINUOUS
 62
     7
 10
62.908548116
 20
-36.323007235
 11
56.369003457
 21
-35.450948107
  0
LINE
  8
AUFNAHME
  6
CONTINUOUS
 62
     7
 10
56.369003457
 20
-35.450948107
 11
49.991704669
 21
-34.542297954
  0
LINE
  8
AUFNAHME
  6
CONTINUOUS
 62
     7
 10
49.991704669
 20
-34.542297954
 11
43.783234140
 21
-33.597994648
  0
LINE
  8
AUFNAHME
  6
CONTINUOUS
 62
     7
 10
43.783234140
 20
-33.597994648
 11
37.750000000
 21
-32.619012861
  0
LINE
  8
AUFNAHME
  6
CONTINUOUS
 62
     7
 10
66.719059892
 20
-40.400000000
 11
30.750000000
 21
-40.400000000
  0
LINE
  8
AUFNAHME
  6
CONTINUOUS
 62
     7
 10
30.053332100
 20
-43.000000000
 11
30.750000000
 21
-40.400000000
  0
LINE
  8
AUFNAHME
  6
CONTINUOUS
 62
     7
 10
30.053332100
 20
-43.000000000
 11
0.500000000
 21
-43.000000000
  0
LINE
  8
AUFNAHME
  6
CONTINUOUS
 62
     7
 10
0.500000000
 20
-31.889457506
 11
0.500000000
 21
-43.000000000
  0
LINE
  8
AUFNAHME
  6
CONTINUOUS
 62
     7
 10
0.000000000
 20
-42.500000000
 11
0.000000000
 21
-31.681027445
  0
LINE
  8
AUFNAHME
  6
CONTINUOUS
 62
     7
 10
0.000000000
 20
-42.500000000
 11
0.500000000
 21
-43.000000000
  0
LINE
  8
AUFNAHME
  6
CONTINUOUS
 62
     7
 10
37.750000000
 20
-32.619012861
 11
37.750000000
 21
32.619012861
  0
LINE
  8
AUFNAHME
  6
CONTINUOUS
 62
     7
 10
64.634468640
 20
30.054658588
 11
48.636346229
 21
34.341342569
  0
LINE
  8
AUFNAHME
  6
CONTINUOUS
 62
     7
 10
64.634468640
 20
-35.318045783
 11
64.634468640
 21
30.054658588
  0
ARC
  8
AUFNAHME
  6
CONTINUOUS
 62
     7
 10
63.099722618
 20
-34.666801829
 40
1.667202459
 50
-96.584466875
 51
-22.993132760
  0
CIRCLE
  8
AUFNAHME
  6
CONTINUOUS
 62
     7
 10
31.750000000
 20
0.000000000
 40
5.250000000
  0
LINE
  8
AUFNAHME
  6
CONTINUOUS
 62
     7
 10
-0.250000000
 20
-31.000000000
 11
-0.250000000
 21
31.000000000
  0
LINE
  8
AUFNAHME
  6
CONTINUOUS
 62
     7
 10
66.950000000
 20
-32.368966619
 11
64.640598923
 21
-35.310339150
  0
LINE
  8
AUFNAHME
  6
CONTINUOUS
 62
     7
 10
66.950000000
 20
-32.368966619
 11
66.950000000
 21
29.434213830
  0
LINE
  8
AUFNAHME
  6
CONTINUOUS
 62
     7
 10
66.950000000
 20
29.434213830
 11
64.634468640
 21
30.054658588
  0
LINE
  8
AUFNAHME
  6
CONTINUOUS
 62
     7
 10
66.950000000
 20
-40.000000000
 11
66.950000000
 21
-32.368966619
  0
LINE
  8
ZAPFEN
  6
CONTINUOUS
 62
     4
 10
-35.250000000
 20
0.000000000
 11
-35.250000000
 21
18.000000000
  0
LINE
  8
ZAPFEN
  6
CONTINUOUS
 62
     4
 10
-35.250000000
 20
-18.000000000
 11
-35.250000000
 21
0.000000000
  0
LINE
  8
ZAPFEN
  6
CONTINUOUS
 62
     4
 10
-1.735441491
 20
-18.000000000
 11
-1.735441491
 21
18.000000000
  0
LINE
  8
ZAPFEN
  6
CONTINUOUS
 62
     4
 10
-37.437486792
 20
-17.692568780
 11
-37.437486792
 21
17.692568780
  0
LINE
  8
ZAPFEN
  6
CONTINUOUS
 62
     4
 10
-40.250000000
 20
-17.300000000
 11
-40.250000000
 21
17.300000000
  0
CIRCLE
  8
ZAPFEN
  6
CONTINUOUS
 62
     4
 10
-15.750000000
 20
0.000000000
 40
6.500000000
  0
CIRCLE
  8
ZAPFEN
  6
CONTINUOUS
 62
     4
 10
-15.750000000
 20
0.000000000
 40
5.541287953
  0
LINE
  8
AUFNAHME
  6
CONTINUOUS
 62
     7
 10
26.610551012
 20
59.660847161
 11
36.352571515
 21
57.943066099
  0
LINE
  8
ZAPFEN
  6
CONTINUOUS
 10
26.525256443
 20
49.585597008
 11
26.555839976
 21
49.605458186
  0
LINE
  8
ZAPFEN
  6
CONTINUOUS
 10
26.534401928
 20
49.602627293
 11
26.525256443
 21
49.585597008
  0
LINE
  8
AUFNAHME
  6
CONTINUOUS
 62
     7
 10
26.171271520
 20
59.956565834
 11
26.826322090
 21
59.622800898
  0
ARC
  8
AUFNAHME
  6
CONTINUOUS
 62
     7
 10
25.989675320
 20
59.600163224
 40
0.400000000
 50
63.000000000
 51
-177.000000000
  0
LINE
  8
AUFNAHME
  6
CONTINUOUS
 62
     7
 10
26.093322877
 20
49.979520981
 11
25.590223506
 21
59.579228842
  0
ARC
  8
AUFNAHME
  6
CONTINUOUS
 62
     7
 10
26.492774691
 20
50.000455363
 40
0.400000000
 50
-177.000000000
 51
-80.928713274
  0
LINE
  8
AUFNAHME
  6
CONTINUOUS
 62
     7
 10
45.471514499
 20
56.105000000
 11
51.671514499
 21
56.105000000
  0
LINE
  8
AUFNAHME
  6
CONTINUOUS
 62
     7
 10
34.640000000
 20
0.000000000
 11
33.196624327
 21
2.500000000
  0
LINE
  8
AUFNAHME
  6
CONTINUOUS
 62
     7
 10
33.196624327
 20
2.500000000
 11
30.303375673
 21
2.500000000
  0
LINE
  8
AUFNAHME
  6
CONTINUOUS
 62
     7
 10
30.303375673
 20
2.500000000
 11
28.860000000
 21
0.000000000
  0
LINE
  8
AUFNAHME
  6
CONTINUOUS
 62
     7
 10
28.860000000
 20
0.000000000
 11
30.303375673
 21
-2.500000000
  0
LINE
  8
AUFNAHME
  6
CONTINUOUS
 62
     7
 10
30.303375673
 20
-2.500000000
 11
33.196624327
 21
-2.500000000
  0
LINE
  8
AUFNAHME
  6
CONTINUOUS
 62
     7
 10
33.196624327
 20
-2.500000000
 11
34.640000000
 21
0.000000000
  0
LINE
  8
AUFNAHME
  6
CONTINUOUS
 62
     7
 10
43.817666922
 20
-43.390000000
 11
42.996152423
 21
-43.390000000
  0
LINE
  8
AUFNAHME
  6
CONTINUOUS
 62
     7
 10
52.503847577
 20
-43.390000000
 11
43.817666922
 21
-43.390000000
  0
LINE
  8
ZAPFEN
  6
CONTINUOUS
 10
60.485606440
 20
55.074252575
 11
60.562609949
 21
55.101804243
  0
LINE
  8
ZAPFEN
  6
STRICHPUNKT
 62
     4
 10
48.160757249
 20
-47.023244779
 11
48.160757249
 21
57.692908984
  0
LINE
  8
UNSICHT
  6
GESTRICHELT
 62
     1
 10
35.661757249
 20
-35.750000000
 11
35.661757249
 21
37.817873208
  0
LINE
  8
AUFNAHME
  6
CONTINUOUS
 62
     7
 10
35.661757249
 20
47.505000000
 11
35.661757249
 21
37.817873208
  0
LINE
  8
UNSICHT
  6
GESTRICHELT
 62
     1
 10
63.160757249
 20
-35.750000000
 11
33.160757249
 21
-35.750000000
  0
LINE
  8
UNSICHT
  6
GESTRICHELT
 62
     1
 10
33.160757249
 20
-35.750000000
 11
33.160757249
 21
-40.400000000
  0
LINE
  8
UNSICHT
  6
GESTRICHELT
 62
     1
 10
63.160757249
 20
-40.400000000
 11
63.160757249
 21
-35.750000000
  0
LINE
  8
UNSICHT
  6
GESTRICHELT
 62
     1
 10
60.661757249
 20
30.449270416
 11
60.661757249
 21
-35.750000000
  0
TEXT
  8
TEXT
  6
GESTRICHELT
 62
     4
 10
8.016192889
 20
-40.008485387
 40
3.500000000
  1
310.607
 50
0.000000000
 41
1.000
 51
0.000000000
  7
STANDARD
  0
LINE
  8
ZAPFEN
  6
STRICHPUNKT
 62
     4
 10
-3.570994732
 20
5.045801054
 11
62.376517111
 21
32.480180499
  0
LINE
  8
UNSICHT
  6
GESTRICHELT
 62
     1
 10
-3.004276418
 20
7.994298110
 11
55.738267973
 21
32.438388373
  0
LINE
  8
UNSICHT
  6
GESTRICHELT
 62
     1
 10
-0.481933685
 20
3.629005268
 11
63.658122689
 21
30.316269697
  0
LINE
  8
UNSICHT
  6
GESTRICHELT
 62
     1
 10
-3.004276418
 20
7.994298110
 11
1.616485900
 21
0.000000000
  0
LINE
  8
UNSICHT
  6
GESTRICHELT
 62
     1
 10
-3.004276418
 20
-8.022187791
 11
1.616485900
 21
0.000000000
  0
LINE
  8
UNSICHT
  6
GESTRICHELT
 62
     1
 10
-3.004276418
 20
7.994298110
 11
-3.004276418
 21
-8.022187791
  0
LINE
  8
UNSICHT
  6
GESTRICHELT
 62
     1
 10
-39.997149055
 20
7.994298110
 11
-3.004276418
 21
7.994298110
  0
LINE
  8
UNSICHT
  6
GESTRICHELT
 62
     1
 10
-39.997149055
 20
-8.022187791
 11
-3.004276418
 21
-8.022187791
  0
LINE
  8
ZAPFEN
  6
STRICHPUNKT
 62
     4
 10
-44.086737500
 20
0.000000000
 11
69.234804297
 21
0.000000000
  0
LINE
  8
ZAPFEN
  6
STRICHPUNKT
 62
     4
 10
31.750000000
 20
-6.931158984
 11
31.750000000
 21
8.113582031
  0
LINE
  8
ZAPFEN
  6
STRICHPUNKT
 62
     4
 10
-15.750000000
 20
-10.184899219
 11
-15.750000000
 21
9.473230078
  0
LINE
  8
MASS
  6
CONTINUOUS
 62
     4
 10
-50.981946945
 20
-18.000000000
 11
-35.250000000
 21
-18.000000000
  0
LINE
  8
MASS
  6
CONTINUOUS
 62
     4
 10
-48.981946945
 20
-18.000000000
 11
-49.431946945
 21
-14.500000000
  0
LINE
  8
MASS
  6
CONTINUOUS
 62
     4
 10
-49.431946945
 20
-14.500000000
 11
-48.531946945
 21
-14.500000000
  0
LINE
  8
MASS
  6
CONTINUOUS
 62
     4
 10
-48.531946945
 20
-14.500000000
 11
-48.981946945
 21
-18.000000000
  0
LINE
  8
MASS
  6
CONTINUOUS
 62
     4
 10
-48.981946945
 20
-14.600000000
 11
-48.981946945
 21
-17.900000000
  0
LINE
  8
MASS
  6
CONTINUOUS
 62
     4
 10
-48.781946945
 20
-14.600000000
 11
-48.781946945
 21
-16.344444444
  0
LINE
  8
MASS
  6
CONTINUOUS
 62
     4
 10
-49.181946945
 20
-14.600000000
 11
-49.181946945
 21
-16.344444444
  0
LINE
  8
MASS
  6
CONTINUOUS
 62
     4
 10
-48.581946945
 20
-14.600000000
 11
-48.581946945
 21
-14.788888889
  0
LINE
  8
MASS
  6
CONTINUOUS
 62
     4
 10
-49.381946945
 20
-14.600000000
 11
-49.381946945
 21
-14.788888889
  0
LINE
  8
MASS
  6
CONTINUOUS
 62
     4
 10
-50.981946945
 20
18.000000000
 11
-35.250000000
 21
18.000000000
  0
LINE
  8
MASS
  6
CONTINUOUS
 62
     4
 10
-48.981946945
 20
18.000000000
 11
-48.531946945
 21
14.500000000
  0
LINE
  8
MASS
  6
CONTINUOUS
 62
     4
 10
-48.531946945
 20
14.500000000
 11
-49.431946945
 21
14.500000000
  0
LINE
  8
MASS
  6
CONTINUOUS
 62
     4
 10
-49.431946945
 20
14.500000000
 11
-48.981946945
 21
18.000000000
  0
LINE
  8
MASS
  6
CONTINUOUS
 62
     4
 10
-48.981946945
 20
14.600000000
 11
-48.981946945
 21
17.900000000
  0
LINE
  8
MASS
  6
CONTINUOUS
 62
     4
 10
-49.181946945
 20
14.600000000
 11
-49.181946945
 21
16.344444444
  0
LINE
  8
MASS
  6
CONTINUOUS
 62
     4
 10
-48.781946945
 20
14.600000000
 11
-48.781946945
 21
16.344444444
  0
LINE
  8
MASS
  6
CONTINUOUS
 62
     4
 10
-49.381946945
 20
14.600000000
 11
-49.381946945
 21
14.788888889
  0
LINE
  8
MASS
  6
CONTINUOUS
 62
     4
 10
-48.581946945
 20
14.600000000
 11
-48.581946945
 21
14.788888889
  0
LINE
  8
MASS
  6
CONTINUOUS
 62
     4
 10
-48.981946945
 20
-14.500000000
 11
-48.981946945
 21
14.500000000
  0
TEXT
  8
MASS
  6
CONTINUOUS
 62
     4
 10
-50.481946945
 20
0.331405848
 40
3.500000000
  1
36
 50
90.000000000
 41
1.000
 51
0.000000000
  7
STANDARD
  0
CIRCLE
  8
MASS
  6
CONTINUOUS
 62
     4
 10
-51.731946945
 20
-1.918594152
 40
1.250000000
  0
LINE
  8
MASS
  6
CONTINUOUS
 62
     4
 10
-50.481946945
 20
-3.168594152
 11
-52.981946945
 21
-0.668594152
  0
LINE
  8
UNSICHT
  6
STRICHPUNKT
 62
     1
 10
0.000000000
 20
45.000000000
 11
29.642304845
 21
45.000000000
  0
LINE
  8
UNSICHT
  6
STRICHPUNKT
 62
     1
 10
0.000000000
 20
42.500000000
 11
0.000000000
 21
45.000000000
  0
LINE
  8
MASS
  6
CONTINUOUS
 62
     4
 10
-58.567108154
 20
-45.000000000
 11
0.000000000
 21
-45.000000000
  0
LINE
  8
MASS
  6
CONTINUOUS
 62
     4
 10
-56.567108154
 20
-45.000000000
 11
-57.017108154
 21
-41.500000000
  0
LINE
  8
MASS
  6
CONTINUOUS
 62
     4
 10
-57.017108154
 20
-41.500000000
 11
-56.117108154
 21
-41.500000000
  0
LINE
  8
MASS
  6
CONTINUOUS
 62
     4
 10
-56.117108154
 20
-41.500000000
 11
-56.567108154
 21
-45.000000000
  0
LINE
  8
MASS
  6
CONTINUOUS
 62
     4
 10
-56.567108154
 20
-41.600000000
 11
-56.567108154
 21
-44.900000000
  0
LINE
  8
MASS
  6
CONTINUOUS
 62
     4
 10
-56.367108154
 20
-41.600000000
 11
-56.367108154
 21
-43.344444444
  0
LINE
  8
MASS
  6
CONTINUOUS
 62
     4
 10
-56.767108154
 20
-41.600000000
 11
-56.767108154
 21
-43.344444444
  0
LINE
  8
MASS
  6
CONTINUOUS
 62
     4
 10
-56.167108154
 20
-41.600000000
 11
-56.167108154
 21
-41.788888889
  0
LINE
  8
MASS
  6
CONTINUOUS
 62
     4
 10
-56.967108154
 20
-41.600000000
 11
-56.967108154
 21
-41.788888889
  0
LINE
  8
MASS
  6
CONTINUOUS
 62
     4
 10
-58.567108154
 20
45.000000000
 11
0.000000000
 21
45.000000000
  0
LINE
  8
MASS
  6
CONTINUOUS
 62
     4
 10
-56.567108154
 20
45.000000000
 11
-56.117108154
 21
41.500000000
  0
LINE
  8
MASS
  6
CONTINUOUS
 62
     4
 10
-56.117108154
 20
41.500000000
 11
-57.017108154
 21
41.500000000
  0
LINE
  8
MASS
  6
CONTINUOUS
 62
     4
 10
-57.017108154
 20
41.500000000
 11
-56.567108154
 21
45.000000000
  0
LINE
  8
MASS
  6
CONTINUOUS
 62
     4
 10
-56.567108154
 20
41.600000000
 11
-56.567108154
 21
44.900000000
  0
LINE
  8
MASS
  6
CONTINUOUS
 62
     4
 10
-56.767108154
 20
41.600000000
 11
-56.767108154
 21
43.344444444
  0
LINE
  8
MASS
  6
CONTINUOUS
 62
     4
 10
-56.367108154
 20
41.600000000
 11
-56.367108154
 21
43.344444444
  0
LINE
  8
MASS
  6
CONTINUOUS
 62
     4
 10
-56.967108154
 20
41.600000000
 11
-56.967108154
 21
41.788888889
  0
LINE
  8
MASS
  6
CONTINUOUS
 62
     4
 10
-56.167108154
 20
41.600000000
 11
-56.167108154
 21
41.788888889
  0
LINE
  8
MASS
  6
CONTINUOUS
 62
     4
 10
-56.567108154
 20
-41.500000000
 11
-56.567108154
 21
41.500000000
  0
TEXT
  8
MASS
  6
CONTINUOUS
 62
     4
 10
-58.067108154
 20
0.139998994
 40
3.500000000
  1
90
 50
90.000000000
 41
1.000
 51
0.000000000
  7
STANDARD
  0
CIRCLE
  8
MASS
  6
CONTINUOUS
 62
     4
 10
-59.317108154
 20
-2.110001006
 40
1.250000000
  0
LINE
  8
MASS
  6
CONTINUOUS
 62
     4
 10
-58.067108154
 20
-3.360001006
 11
-60.567108154
 21
-0.860001006
  0
LINE
  8
MASS
  6
CONTINUOUS
 62
     4
 10
-0.250000000
 20
-55.016433716
 11
-0.250000000
 21
-18.000000000
  0
LINE
  8
MASS
  6
CONTINUOUS
 62
     4
 10
-0.250000000
 20
-53.016433716
 11
3.249999987
 21
-52.566433616
  0
LINE
  8
MASS
  6
CONTINUOUS
 62
     4
 10
3.249999987
 20
-52.566433616
 11
3.250000013
 21
-53.466433616
  0
LINE
  8
MASS
  6
CONTINUOUS
 62
     4
 10
3.250000013
 20
-53.466433616
 11
-0.250000000
 21
-53.016433716
  0
LINE
  8
MASS
  6
CONTINUOUS
 62
     4
 10
3.150000000
 20
-53.016433619
 11
-0.150000000
 21
-53.016433713
  0
LINE
  8
MASS
  6
CONTINUOUS
 62
     4
 10
3.150000006
 20
-53.216433619
 11
1.405555561
 21
-53.216433669
  0
LINE
  8
MASS
  6
CONTINUOUS
 62
     4
 10
3.149999994
 20
-52.816433619
 11
1.405555550
 21
-52.816433669
  0
LINE
  8
MASS
  6
CONTINUOUS
 62
     4
 10
3.150000011
 20
-53.416433619
 11
2.961111122
 21
-53.416433625
  0
LINE
  8
MASS
  6
CONTINUOUS
 62
     4
 10
3.149999989
 20
-52.616433619
 11
2.961111100
 21
-52.616433625
  0
LINE
  8
MASS
  6
CONTINUOUS
 62
     4
 10
66.950000000
 20
-55.016431808
 11
66.950000000
 21
-40.000000000
  0
LINE
  8
MASS
  6
CONTINUOUS
 62
     4
 10
66.950000000
 20
-53.016431808
 11
63.450000013
 21
-53.466431908
  0
LINE
  8
MASS
  6
CONTINUOUS
 62
     4
 10
63.450000013
 20
-53.466431908
 11
63.449999987
 21
-52.566431908
  0
LINE
  8
MASS
  6
CONTINUOUS
 62
     4
 10
63.449999987
 20
-52.566431908
 11
66.950000000
 21
-53.016431808
  0
LINE
  8
MASS
  6
CONTINUOUS
 62
     4
 10
63.550000000
 20
-53.016431905
 11
66.850000000
 21
-53.016431811
  0
LINE
  8
MASS
  6
CONTINUOUS
 62
     4
 10
63.549999994
 20
-52.816431905
 11
65.294444439
 21
-52.816431855
  0
LINE
  8
MASS
  6
CONTINUOUS
 62
     4
 10
63.550000006
 20
-53.216431905
 11
65.294444450
 21
-53.216431855
  0
LINE
  8
MASS
  6
CONTINUOUS
 62
     4
 10
63.549999989
 20
-52.616431905
 11
63.738888878
 21
-52.616431900
  0
LINE
  8
MASS
  6
CONTINUOUS
 62
     4
 10
63.550000011
 20
-53.416431905
 11
63.738888900
 21
-53.416431900
  0
LINE
  8
MASS
  6
CONTINUOUS
 62
     4
 10
3.250000000
 20
-53.016433616
 11
63.450000000
 21
-53.016431908
  0
TEXT
  8
MASS
  6
CONTINUOUS
 62
     4
 10
30.126717956
 20
-51.516432854
 40
3.500000000
  1
67.2
 50
0.000001626
 41
1.000
 51
0.000000000
  7
STANDARD
  0
LINE
  8
MASS
  6
CONTINUOUS
 62
     4
 10
83.650090593
 20
60.135088746
 11
26.528532476
 21
60.135086249
  0
LINE
  8
MASS
  6
CONTINUOUS
 62
     4
 10
81.650090593
 20
60.135088658
 11
82.100090746
 21
56.635088678
  0
LINE
  8
MASS
  6
CONTINUOUS
 62
     4
 10
82.100090746
 20
56.635088678
 11
81.200090746
 21
56.635088639
  0
LINE
  8
MASS
  6
CONTINUOUS
 62
     4
 10
81.200090746
 20
56.635088639
 11
81.650090593
 21
60.135088658
  0
LINE
  8
MASS
  6
CONTINUOUS
 62
     4
 10
81.650090742
 20
56.735088658
 11
81.650090598
 21
60.035088658
  0
LINE
  8
MASS
  6
CONTINUOUS
 62
     4
 10
81.450090742
 20
56.735088650
 11
81.450090666
 21
58.479533094
  0
LINE
  8
MASS
  6
CONTINUOUS
 62
     4
 10
81.850090742
 20
56.735088667
 11
81.850090666
 21
58.479533112
  0
LINE
  8
MASS
  6
CONTINUOUS
 62
     4
 10
81.250090742
 20
56.735088641
 11
81.250090734
 21
56.923977530
  0
LINE
  8
MASS
  6
CONTINUOUS
 62
     4
 10
82.050090742
 20
56.735088676
 11
82.050090734
 21
56.923977565
  0
LINE
  8
MASS
  6
CONTINUOUS
 62
     4
 10
81.650093485
 20
-6.013508269
 11
81.650090746
 21
56.635088658
  0
CIRCLE
  8
MASS
  6
CONTINUOUS
 62
     4
 10
77.419856195
 20
-5.005093087
 40
1.250000000
  0
LINE
  8
MASS
  6
CONTINUOUS
 62
     4
 10
78.669856250
 20
-6.255093032
 11
76.169856141
 21
-3.755093142
  0
TEXT
  8
MASS
  6
CONTINUOUS
 62
     4
 10
78.669856097
 20
-2.755093032
 40
3.500000000
  1
112 - 153
 50
90.000002504
 41
1.000
 51
0.000000000
  7
STANDARD
  0
LINE
  8
MASS
  6
CONTINUOUS
 62
     4
 10
0.000000000
 20
68.534648895
 11
0.000000000
 21
42.500000000
  0
LINE
  8
MASS
  6
CONTINUOUS
 62
     4
 10
0.000000000
 20
66.534648895
 11
3.500000009
 21
66.984648825
  0
LINE
  8
MASS
  6
CONTINUOUS
 62
     4
 10
3.500000009
 20
66.984648825
 11
3.499999991
 21
66.084648825
  0
LINE
  8
MASS
  6
CONTINUOUS
 62
     4
 10
3.499999991
 20
66.084648825
 11
0.000000000
 21
66.534648895
  0
LINE
  8
MASS
  6
CONTINUOUS
 62
     4
 10
3.400000000
 20
66.534648827
 11
0.100000000
 21
66.534648893
  0
LINE
  8
MASS
  6
CONTINUOUS
 62
     4
 10
3.399999996
 20
66.334648827
 11
1.655555552
 21
66.334648862
  0
LINE
  8
MASS
  6
CONTINUOUS
 62
     4
 10
3.400000004
 20
66.734648827
 11
1.655555560
 21
66.734648862
  0
LINE
  8
MASS
  6
CONTINUOUS
 62
     4
 10
3.399999992
 20
66.134648827
 11
3.211111103
 21
66.134648831
  0
LINE
  8
MASS
  6
CONTINUOUS
 62
     4
 10
3.400000008
 20
66.934648827
 11
3.211111119
 21
66.934648831
  0
LINE
  8
MASS
  6
CONTINUOUS
 62
     4
 10
25.590223506
 20
68.534648382
 11
25.590223506
 21
59.579228842
  0
LINE
  8
MASS
  6
CONTINUOUS
 62
     4
 10
25.590223506
 20
66.534648382
 11
22.090223497
 21
66.084648453
  0
LINE
  8
MASS
  6
CONTINUOUS
 62
     4
 10
22.090223497
 20
66.084648453
 11
22.090223515
 21
66.984648453
  0
LINE
  8
MASS
  6
CONTINUOUS
 62
     4
 10
22.090223515
 20
66.984648453
 11
25.590223506
 21
66.534648382
  0
LINE
  8
MASS
  6
CONTINUOUS
 62
     4
 10
22.190223506
 20
66.534648451
 11
25.490223506
 21
66.534648384
  0
LINE
  8
MASS
  6
CONTINUOUS
 62
     4
 10
22.190223510
 20
66.734648451
 11
23.934667954
 21
66.734648416
  0
LINE
  8
MASS
  6
CONTINUOUS
 62
     4
 10
22.190223502
 20
66.334648451
 11
23.934667946
 21
66.334648416
  0
LINE
  8
MASS
  6
CONTINUOUS
 62
     4
 10
22.190223514
 20
66.934648451
 11
22.379112403
 21
66.934648447
  0
LINE
  8
MASS
  6
CONTINUOUS
 62
     4
 10
22.190223498
 20
66.134648451
 11
22.379112387
 21
66.134648447
  0
LINE
  8
MASS
  6
CONTINUOUS
 62
     4
 10
3.500000000
 20
66.534648825
 11
22.090223506
 21
66.534648453
  0
TEXT
  8
MASS
  6
CONTINUOUS
 62
     4
 10
11.239798997
 20
68.034648670
 40
3.500000000
  1
25
 50
359.999998852
 41
1.000
 51
0.000000000
  7
STANDARD
  0
POINT
  8
0
  6
CONTINUOUS
 62
     3
 10
2.160757249
 20
0.000000000
  0
POINT
  8
0
  6
CONTINUOUS
 62
     3
 10
2.160757249
 20
0.000000000
  0
POINT
  8
0
  6
CONTINUOUS
 62
     3
 10
2.160757249
 20
0.000000000
  0
POINT
  8
0
  6
CONTINUOUS
 62
     3
 10
2.160757249
 20
0.000000000
  0
POINT
  8
0
  6
CONTINUOUS
 62
     3
 10
2.160757249
 20
0.000000000
  0
ENDSEC
  0
EOF
