  0
SECTION
  2
HEADER
  9
$ACADVER
  1
AC1015
  9
$ACADMAINTVER
 70
     6
  9
$DWGCODEPAGE
  3
ANSI_1252
  9
$INSBASE
 10
0.0
 20
0.0
 30
0.0
  9
$EXTMIN
 10
-63.26116991651422
 20
-50.8807731033024
 30
0.0
  9
$EXTMAX
 10
90.3259527840426
 20
48.91284003752984
 30
0.0
  9
$LIMMIN
 10
-56.914791786
 20
-40.8100008
  9
$LIMMAX
 10
75.914791295
 20
41.809999877
  9
$ORTHOMODE
 70
     0
  9
$REGENMODE
 70
     1
  9
$FILLMODE
 70
     1
  9
$QTEXTMODE
 70
     0
  9
$MIRRTEXT
 70
     1
  9
$LTSCALE
 40
1.0
  9
$ATTMODE
 70
     1
  9
$TEXTSIZE
 40
0.2
  9
$TRACEWID
 40
0.05
  9
$TEXTSTYLE
  7
Standard
  9
$CLAYER
  8
SK1
  9
$CELTYPE
  6
ByLayer
  9
$CECOLOR
 62
   256
  9
$CELTSCALE
 40
1.0
  9
$DISPSILH
 70
     0
  9
$DIMSCALE
 40
1.0
  9
$DIMASZ
 40
0.18
  9
$DIMEXO
 40
0.0625
  9
$DIMDLI
 40
0.38
  9
$DIMRND
 40
0.0
  9
$DIMDLE
 40
0.0
  9
$DIMEXE
 40
0.18
  9
$DIMTP
 40
0.0
  9
$DIMTM
 40
0.0
  9
$DIMTXT
 40
0.18
  9
$DIMCEN
 40
0.09
  9
$DIMTSZ
 40
0.0
  9
$DIMTOL
 70
     0
  9
$DIMLIM
 70
     0
  9
$DIMTIH
 70
     1
  9
$DIMTOH
 70
     1
  9
$DIMSE1
 70
     0
  9
$DIMSE2
 70
     0
  9
$DIMTAD
 70
     0
  9
$DIMZIN
 70
     0
  9
$DIMBLK
  1

  9
$DIMASO
 70
     1
  9
$DIMSHO
 70
     1
  9
$DIMPOST
  1

  9
$DIMAPOST
  1

  9
$DIMALT
 70
     0
  9
$DIMALTD
 70
     2
  9
$DIMALTF
 40
25.4
  9
$DIMLFAC
 40
1.0
  9
$DIMTOFL
 70
     0
  9
$DIMTVP
 40
0.0
  9
$DIMTIX
 70
     0
  9
$DIMSOXD
 70
     0
  9
$DIMSAH
 70
     0
  9
$DIMBLK1
  1

  9
$DIMBLK2
  1

  9
$DIMSTYLE
  2
Standard
  9
$DIMCLRD
 70
     0
  9
$DIMCLRE
 70
     0
  9
$DIMCLRT
 70
     0
  9
$DIMTFAC
 40
1.0
  9
$DIMGAP
 40
0.09
  9
$DIMJUST
 70
     0
  9
$DIMSD1
 70
     0
  9
$DIMSD2
 70
     0
  9
$DIMTOLJ
 70
     1
  9
$DIMTZIN
 70
     0
  9
$DIMALTZ
 70
     0
  9
$DIMALTTZ
 70
     0
  9
$DIMUPT
 70
     0
  9
$DIMDEC
 70
     4
  9
$DIMTDEC
 70
     4
  9
$DIMALTU
 70
     2
  9
$DIMALTTD
 70
     2
  9
$DIMTXSTY
  7
Standard
  9
$DIMAUNIT
 70
     0
  9
$DIMADEC
 70
     0
  9
$DIMALTRND
 40
0.0
  9
$DIMAZIN
 70
     0
  9
$DIMDSEP
 70
    46
  9
$DIMATFIT
 70
     3
  9
$DIMFRAC
 70
     0
  9
$DIMLDRBLK
  1

  9
$DIMLUNIT
 70
     2
  9
$DIMLWD
 70
    -2
  9
$DIMLWE
 70
    -2
  9
$DIMTMOVE
 70
     2
  9
$LUNITS
 70
     2
  9
$LUPREC
 70
     4
  9
$SKETCHINC
 40
0.1
  9
$FILLETRAD
 40
0.5
  9
$AUNITS
 70
     2
  9
$AUPREC
 70
     0
  9
$MENU
  1
.
  9
$ELEVATION
 40
0.0
  9
$PELEVATION
 40
0.0
  9
$THICKNESS
 40
0.0
  9
$LIMCHECK
 70
     0
  9
$CHAMFERA
 40
0.5
  9
$CHAMFERB
 40
0.5
  9
$CHAMFERC
 40
1.0
  9
$CHAMFERD
 40
0.0
  9
$SKPOLY
 70
     0
  9
$TDCREATE
 40
2458327.549313854
  9
$TDUCREATE
 40
2458327.465980521
  9
$TDUPDATE
 40
2458589.588374525
  9
$TDUUPDATE
 40
2458589.505041192
  9
$TDINDWG
 40
0.0120474074
  9
$TDUSRTIMER
 40
0.0001285417
  9
$USRTIMER
 70
     1
  9
$ANGBASE
 50
0.0
  9
$ANGDIR
 70
     0
  9
$PDMODE
 70
     0
  9
$PDSIZE
 40
0.0
  9
$PLINEWID
 40
0.0
  9
$SPLFRAME
 70
     0
  9
$SPLINETYPE
 70
     6
  9
$SPLINESEGS
 70
     8
  9
$HANDSEED
  5
2C7
  9
$SURFTAB1
 70
     6
  9
$SURFTAB2
 70
     6
  9
$SURFTYPE
 70
     6
  9
$SURFU
 70
     6
  9
$SURFV
 70
     6
  9
$UCSBASE
  2

  9
$UCSNAME
  2

  9
$UCSORG
 10
0.0
 20
0.0
 30
0.0
  9
$UCSXDIR
 10
1.0
 20
0.0
 30
0.0
  9
$UCSYDIR
 10
0.0
 20
1.0
 30
0.0
  9
$UCSORTHOREF
  2

  9
$UCSORTHOVIEW
 70
     0
  9
$UCSORGTOP
 10
0.0
 20
0.0
 30
0.0
  9
$UCSORGBOTTOM
 10
0.0
 20
0.0
 30
0.0
  9
$UCSORGLEFT
 10
0.0
 20
0.0
 30
0.0
  9
$UCSORGRIGHT
 10
0.0
 20
0.0
 30
0.0
  9
$UCSORGFRONT
 10
0.0
 20
0.0
 30
0.0
  9
$UCSORGBACK
 10
0.0
 20
0.0
 30
0.0
  9
$PUCSBASE
  2

  9
$PUCSNAME
  2

  9
$PUCSORG
 10
0.0
 20
0.0
 30
0.0
  9
$PUCSXDIR
 10
1.0
 20
0.0
 30
0.0
  9
$PUCSYDIR
 10
0.0
 20
1.0
 30
0.0
  9
$PUCSORTHOREF
  2

  9
$PUCSORTHOVIEW
 70
     0
  9
$PUCSORGTOP
 10
0.0
 20
0.0
 30
0.0
  9
$PUCSORGBOTTOM
 10
0.0
 20
0.0
 30
0.0
  9
$PUCSORGLEFT
 10
0.0
 20
0.0
 30
0.0
  9
$PUCSORGRIGHT
 10
0.0
 20
0.0
 30
0.0
  9
$PUCSORGFRONT
 10
0.0
 20
0.0
 30
0.0
  9
$PUCSORGBACK
 10
0.0
 20
0.0
 30
0.0
  9
$USERI1
 70
     0
  9
$USERI2
 70
     0
  9
$USERI3
 70
     0
  9
$USERI4
 70
     0
  9
$USERI5
 70
     0
  9
$USERR1
 40
0.0
  9
$USERR2
 40
0.0
  9
$USERR3
 40
0.0
  9
$USERR4
 40
0.0
  9
$USERR5
 40
0.0
  9
$WORLDVIEW
 70
     1
  9
$SHADEDGE
 70
     3
  9
$SHADEDIF
 70
    70
  9
$TILEMODE
 70
     1
  9
$MAXACTVP
 70
    64
  9
$PINSBASE
 10
0.0
 20
0.0
 30
0.0
  9
$PLIMCHECK
 70
     0
  9
$PEXTMIN
 10
1.000000000000000E+20
 20
1.000000000000000E+20
 30
1.000000000000000E+20
  9
$PEXTMAX
 10
-1.000000000000000E+20
 20
-1.000000000000000E+20
 30
-1.000000000000000E+20
  9
$PLIMMIN
 10
0.0
 20
0.0
  9
$PLIMMAX
 10
0.0
 20
0.0
  9
$UNITMODE
 70
     0
  9
$VISRETAIN
 70
     1
  9
$PLINEGEN
 70
     0
  9
$PSLTSCALE
 70
     1
  9
$TREEDEPTH
 70
  3020
  9
$CMLSTYLE
  2
Standard
  9
$CMLJUST
 70
     0
  9
$CMLSCALE
 40
1.0
  9
$PROXYGRAPHICS
 70
     1
  9
$MEASUREMENT
 70
     0
  9
$CELWEIGHT
370
    -1
  9
$ENDCAPS
280
     0
  9
$JOINSTYLE
280
     0
  9
$LWDISPLAY
290
     0
  9
$INSUNITS
 70
     0
  9
$HYPERLINKBASE
  1

  9
$STYLESHEET
  1

  9
$XEDIT
290
     1
  9
$CEPSNTYPE
380
     0
  9
$PSTYLEMODE
290
     1
  9
$FINGERPRINTGUID
  2
{2B74D5C5-61D0-405D-A326-A52A01E83B9B}
  9
$VERSIONGUID
  2
{FAEB1C32-E019-11D5-929B-00C0DF256EC4}
  9
$EXTNAMES
290
     1
  9
$PSVPSCALE
 40
0.0
  9
$OLESTARTUP
290
     0
  0
ENDSEC
  0
SECTION
  2
CLASSES
  0
CLASS
  1
ACDBDICTIONARYWDFLT
  2
AcDbDictionaryWithDefault
  3
ObjectDBX Classes
 90
        0
280
     0
281
     0
  0
CLASS
  1
SCALE
  2
AcDbScale
  3
ObjectDBX Classes
 90
     1153
280
     0
281
     0
  0
CLASS
  1
VISUALSTYLE
  2
AcDbVisualStyle
  3
ObjectDBX Classes
 90
     4095
280
     0
281
     0
  0
CLASS
  1
MATERIAL
  2
AcDbMaterial
  3
ObjectDBX Classes
 90
     1153
280
     0
281
     0
  0
CLASS
  1
DICTIONARYVAR
  2
AcDbDictionaryVar
  3
ObjectDBX Classes
 90
        0
280
     0
281
     0
  0
CLASS
  1
ACDBPLACEHOLDER
  2
AcDbPlaceHolder
  3
ObjectDBX Classes
 90
        0
280
     0
281
     0
  0
CLASS
  1
LAYOUT
  2
AcDbLayout
  3
ObjectDBX Classes
 90
        0
280
     0
281
     0
  0
CLASS
  1
TABLESTYLE
  2
AcDbTableStyle
  3
ObjectDBX Classes
 90
     4095
280
     0
281
     0
  0
CLASS
  1
MLEADERSTYLE
  2
AcDbMLeaderStyle
  3
ACDB_MLEADERSTYLE_CLASS
 90
     4095
280
     0
281
     0
  0
CLASS
  1
SUN
  2
AcDbSun
  3
SCENEOE
 90
     1153
280
     0
281
     0
  0
CLASS
  1
SORTENTSTABLE
  2
AcDbSortentsTable
  3
ObjectDBX Classes
 90
        0
280
     0
281
     0
  0
CLASS
  1
CELLSTYLEMAP
  2
AcDbCellStyleMap
  3
ObjectDBX Classes
 90
     1152
280
     0
281
     0
  0
ENDSEC
  0
SECTION
  2
TABLES
  0
TABLE
  2
VPORT
  5
8
330
0
100
AcDbSymbolTable
 70
     1
  0
VPORT
  5
E0
330
8
100
AcDbSymbolTableRecord
100
AcDbViewportTableRecord
  2
*Active
 70
     0
 10
0.0
 20
0.0
 11
1.0
 21
1.0
 12
-10.17835982858966
 22
-13.66932515331911
 13
0.0
 23
0.0
 14
0.5
 24
0.5
 15
0.5
 25
0.5
 16
0.0
 26
0.0
 36
1.0
 17
0.0
 27
0.0
 37
0.0
 40
140.5094073022911
 41
1.70021645021645
 42
50.0
 43
0.0
 44
0.0
 50
0.0
 51
0.0
 71
    16
 72
   100
 73
     1
 74
     3
 75
     0
 76
     0
 77
     0
 78
     0
281
     0
 65
     1
110
0.0
120
0.0
130
0.0
111
1.0
121
0.0
131
0.0
112
0.0
122
1.0
132
0.0
 79
     0
146
0.0
  0
ENDTAB
  0
TABLE
  2
LTYPE
  5
5
330
0
100
AcDbSymbolTable
 70
     8
  0
LTYPE
  5
14
330
5
100
AcDbSymbolTableRecord
100
AcDbLinetypeTableRecord
  2
ByBlock
 70
     0
  3

 72
    65
 73
     0
 40
0.0
  0
LTYPE
  5
15
330
5
100
AcDbSymbolTableRecord
100
AcDbLinetypeTableRecord
  2
ByLayer
 70
     0
  3

 72
    65
 73
     0
 40
0.0
  0
LTYPE
  5
16
330
5
100
AcDbSymbolTableRecord
100
AcDbLinetypeTableRecord
  2
Continuous
 70
     0
  3
Solid line
 72
    65
 73
     0
 40
0.0
  0
LTYPE
  5
20
330
5
100
AcDbSymbolTableRecord
100
AcDbLinetypeTableRecord
  2
PUNKT
 70
     0
  3
..............
 72
    65
 73
     2
 40
1.5
 49
0.7
 74
     0
 49
-0.8
 74
     0
  0
LTYPE
  5
21
330
5
100
AcDbSymbolTableRecord
100
AcDbLinetypeTableRecord
  2
GESTRICHELT
 70
     0
  3
-- -- -- -- --
 72
    65
 73
     7
 40
2.8
 49
0.9
 74
     0
 49
0.0
 74
     0
 49
0.9
 74
     0
 49
0.0
 74
     0
 49
0.2
 74
     0
 49
0.0
 74
     0
 49
-0.8
 74
     0
  0
LTYPE
  5
22
330
5
100
AcDbSymbolTableRecord
100
AcDbLinetypeTableRecord
  2
STRICHPUNKT
 70
     0
  3
--.--.--.--.--
 72
    65
 73
     4
 40
8.8
 49
5.5
 74
     0
 49
-1.3
 74
     0
 49
0.7
 74
     0
 49
-1.3
 74
     0
  0
LTYPE
  5
25
330
5
100
AcDbSymbolTableRecord
100
AcDbLinetypeTableRecord
  2
PHANTOM
 70
     0
  3
--..--..--..--
 72
    65
 73
     6
 40
14.2
 49
7.0
 74
     0
 49
-1.8
 74
     0
 49
0.9
 74
     0
 49
-1.8
 74
     0
 49
0.9
 74
     0
 49
-1.8
 74
     0
  0
LTYPE
  5
158
330
5
100
AcDbSymbolTableRecord
100
AcDbLinetypeTableRecord
  2
DASH
 70
     0
  3
DASH _ _ _ _ _
 72
    65
 73
     2
 40
0.75
 49
0.4
 74
     0
 49
-0.35
 74
     0
  0
LTYPE
  5
159
330
5
100
AcDbSymbolTableRecord
100
AcDbLinetypeTableRecord
  2
LONGDASH_DASH
 70
     0
  3
LONGDASH_DASH __ . __ . __
 72
    65
 73
     4
 40
0.85
 49
0.4
 74
     0
 49
-0.2
 74
     0
 49
0.05
 74
     0
 49
-0.2
 74
     0
  0
LTYPE
  5
15A
330
5
100
AcDbSymbolTableRecord
100
AcDbLinetypeTableRecord
  2
LONGDASH_DASH_DASH
 70
     0
  3
LONGDASH_DASH_DASH __ . . __ . . __
 72
    65
 73
     6
 40
1.1
 49
0.4
 74
     0
 49
-0.2
 74
     0
 49
0.05
 74
     0
 49
-0.2
 74
     0
 49
0.05
 74
     0
 49
-0.2
 74
     0
  0
ENDTAB
  0
TABLE
  2
LAYER
  5
2
102
{ACAD_XDICTIONARY
360
17C
102
}
330
0
100
AcDbSymbolTable
 70
    16
  0
LAYER
  5
122
330
2
100
AcDbSymbolTableRecord
100
AcDbLayerTableRecord
  2
200
 70
     0
 62
     2
  6
Continuous
370
    50
390
F
  0
LAYER
  5
15B
330
2
100
AcDbSymbolTableRecord
100
AcDbLayerTableRecord
  2
0
 70
     0
 62
     1
  6
Continuous
370
    -3
390
F
  0
LAYER
  5
15C
330
2
100
AcDbSymbolTableRecord
100
AcDbLayerTableRecord
  2
1
 70
     0
 62
     4
  6
Continuous
370
    50
390
F
  0
LAYER
  5
15D
330
2
100
AcDbSymbolTableRecord
100
AcDbLayerTableRecord
  2
2
 70
     0
 62
     7
  6
Continuous
370
    25
390
F
  0
LAYER
  5
15E
330
2
100
AcDbSymbolTableRecord
100
AcDbLayerTableRecord
  2
3
 70
     0
 62
     1
  6
DASH
370
    35
390
F
  0
LAYER
  5
15F
330
2
100
AcDbSymbolTableRecord
100
AcDbLayerTableRecord
  2
4
 70
     0
 62
     2
  6
LONGDASH_DASH
370
    25
390
F
  0
LAYER
  5
160
330
2
100
AcDbSymbolTableRecord
100
AcDbLayerTableRecord
  2
6
 70
     0
 62
     5
  6
Continuous
370
    -3
390
F
  0
LAYER
  5
161
330
2
100
AcDbSymbolTableRecord
100
AcDbLayerTableRecord
  2
CUT
 70
     0
 62
     1
  6
Continuous
370
    25
390
F
  0
LAYER
  5
162
330
2
100
AcDbSymbolTableRecord
100
AcDbLayerTableRecord
  2
NOCUT
 70
     0
 62
     7
  6
Continuous
370
    25
390
F
  0
LAYER
  5
163
330
2
100
AcDbSymbolTableRecord
100
AcDbLayerTableRecord
  2
SK1
 70
     0
 62
     4
  6
Continuous
370
    50
390
F
  0
LAYER
  5
164
330
2
100
AcDbSymbolTableRecord
100
AcDbLayerTableRecord
  2
SK2
 70
     0
 62
     7
  6
Continuous
370
    25
390
F
  0
LAYER
  5
165
330
2
100
AcDbSymbolTableRecord
100
AcDbLayerTableRecord
  2
SK3
 70
     0
 62
     1
  6
DASH
370
    35
390
F
  0
LAYER
  5
166
330
2
100
AcDbSymbolTableRecord
100
AcDbLayerTableRecord
  2
SK4
 70
     0
 62
     2
  6
LONGDASH_DASH
370
    25
390
F
  0
LAYER
  5
167
330
2
100
AcDbSymbolTableRecord
100
AcDbLayerTableRecord
  2
SK6
 70
     0
 62
     5
  6
Continuous
370
    -3
390
F
  0
LAYER
  5
168
330
2
100
AcDbSymbolTableRecord
100
AcDbLayerTableRecord
  2
INFTOTAL
 70
     0
 62
     9
  6
Continuous
370
    18
390
F
  0
LAYER
  5
263
330
2
100
AcDbSymbolTableRecord
100
AcDbLayerTableRecord
  2
7
 70
     0
 62
     5
  6
Continuous
370
    -3
390
F
1001
AcAecLayerStandard
1000

1000

  0
ENDTAB
  0
TABLE
  2
STYLE
  5
3
330
0
100
AcDbSymbolTable
 70
     2
  0
STYLE
  5
11
330
3
100
AcDbSymbolTableRecord
100
AcDbTextStyleTableRecord
  2
Standard
 70
     0
 40
0.0
 41
1.0
 50
0.0
 71
     0
 42
0.2
  3
txt
  4

  0
STYLE
  5
121
330
3
100
AcDbSymbolTableRecord
100
AcDbTextStyleTableRecord
  2
BMG_Text
 70
     0
 40
3.5
 41
1.0
 50
0.0
 71
     0
 42
0.2
  3
monos.ttf
  4

1001
ACAD
1000
Monospac821 BT
1071
       49
  0
ENDTAB
  0
TABLE
  2
VIEW
  5
6
330
0
100
AcDbSymbolTable
 70
     0
  0
ENDTAB
  0
TABLE
  2
UCS
  5
7
330
0
100
AcDbSymbolTable
 70
     0
  0
ENDTAB
  0
TABLE
  2
APPID
  5
9
330
0
100
AcDbSymbolTable
 70
     2
  0
APPID
  5
12
330
9
100
AcDbSymbolTableRecord
100
AcDbRegAppTableRecord
  2
ACAD
 70
     0
  0
APPID
  5
264
330
9
100
AcDbSymbolTableRecord
100
AcDbRegAppTableRecord
  2
AcAecLayerStandard
 70
     0
  0
ENDTAB
  0
TABLE
  2
DIMSTYLE
  5
A
330
0
100
AcDbSymbolTable
 70
     1
100
AcDbDimStyleTable
  0
DIMSTYLE
105
28
330
A
100
AcDbSymbolTableRecord
100
AcDbDimStyleTableRecord
  2
Standard
 70
     0
178
     0
340
11
  0
ENDTAB
  0
TABLE
  2
BLOCK_RECORD
  5
1
330
0
100
AcDbSymbolTable
 70
     0
  0
BLOCK_RECORD
  5
1D
102
{ACAD_XDICTIONARY
360
268
102
}
330
1
100
AcDbSymbolTableRecord
100
AcDbBlockTableRecord
  2
*Model_Space
340
1E
  0
BLOCK_RECORD
  5
1B
330
1
100
AcDbSymbolTableRecord
100
AcDbBlockTableRecord
  2
*Paper_Space
340
1C
  0
ENDTAB
  0
ENDSEC
  0
SECTION
  2
BLOCKS
  0
BLOCK
  5
10A
330
1D
100
AcDbEntity
  8
0
100
AcDbBlockBegin
  2
*Model_Space
 70
     0
 10
0.0
 20
0.0
 30
0.0
  3
*Model_Space
  1

  0
ENDBLK
  5
10B
330
1D
100
AcDbEntity
  8
0
100
AcDbBlockEnd
  0
BLOCK
  5
108
330
1B
100
AcDbEntity
 67
     1
  8
0
100
AcDbBlockBegin
  2
*Paper_Space
 70
     0
 10
0.0
 20
0.0
 30
0.0
  3
*Paper_Space
  1

  0
ENDBLK
  5
109
330
1B
100
AcDbEntity
 67
     1
  8
0
100
AcDbBlockEnd
  0
ENDSEC
  0
SECTION
  2
ENTITIES
  0
LINE
  5
29
330
1D
100
AcDbEntity
  8
1
100
AcDbLine
 10
23.273277854
 20
-1.304738594
 30
0.0
 11
23.273277854
 21
-24.500094576
 31
0.0
  0
LINE
  5
2A
330
1D
100
AcDbEntity
  8
1
100
AcDbLine
 10
23.273277854
 20
-24.500094576
 30
0.0
 11
0.993342471
 21
-24.500094576
 31
0.0
  0
LINE
  5
2B
330
1D
100
AcDbEntity
  8
1
100
AcDbLine
 10
0.993342471
 20
-24.500094576
 30
0.0
 11
0.482161739
 21
-23.990029959
 31
0.0
  0
LINE
  5
2C
330
1D
100
AcDbEntity
  8
1
100
AcDbLine
 10
0.482161739
 20
-23.990029959
 30
0.0
 11
0.482161739
 21
23.99012708
 31
0.0
  0
LINE
  5
2D
330
1D
100
AcDbEntity
  8
1
100
AcDbLine
 10
0.482161739
 20
23.99012708
 30
0.0
 11
0.993342471
 21
24.500191698
 31
0.0
  0
LINE
  5
2E
330
1D
100
AcDbEntity
  8
1
100
AcDbLine
 10
0.993342471
 20
24.500191698
 30
0.0
 11
23.273277854
 21
24.500191698
 31
0.0
  0
LINE
  5
2F
330
1D
100
AcDbEntity
  8
1
100
AcDbLine
 10
23.273277854
 20
24.500191698
 30
0.0
 11
24.666777468
 21
24.500191698
 31
0.0
  0
LINE
  5
30
330
1D
100
AcDbEntity
  8
1
100
AcDbLine
 10
24.666777468
 20
24.500191698
 30
0.0
 11
24.975353436
 21
23.312296847
 31
0.0
  0
LINE
  5
31
330
1D
100
AcDbEntity
  8
1
100
AcDbLine
 10
24.975353436
 20
23.312296847
 30
0.0
 11
53.000423928
 21
15.796377521
 31
0.0
  0
LINE
  5
32
330
1D
100
AcDbEntity
  8
1
100
AcDbLine
 10
53.000423928
 20
15.796377521
 30
0.0
 11
53.000423928
 21
-20.021989426
 31
0.0
  0
LINE
  5
33
330
1D
100
AcDbEntity
  8
1
100
AcDbLine
 10
53.000423928
 20
-20.021989426
 30
0.0
 11
52.432321324
 21
-21.014215782
 31
0.0
  0
LINE
  5
34
330
1D
100
AcDbEntity
  8
1
100
AcDbLine
 10
52.432321324
 20
-21.014215782
 30
0.0
 11
24.975353436
 21
-21.014215782
 31
0.0
  0
LINE
  5
35
330
1D
100
AcDbEntity
  8
1
100
AcDbLine
 10
24.975353436
 20
-21.014215782
 30
0.0
 11
23.273277854
 21
-23.948108087
 31
0.0
  0
LINE
  5
36
330
1D
100
AcDbEntity
  8
SK4
100
AcDbLine
 10
25.38157431
 20
-3.800372038
 30
0.0
 11
25.38157431
 21
9.188975915
 31
0.0
  0
LINE
  5
37
330
1D
100
AcDbEntity
  8
SK4
100
AcDbLine
 10
31.90526728
 20
2.694301939
 30
0.0
 11
18.886900333
 21
2.694301939
 31
0.0
  0
LINE
  5
38
330
1D
100
AcDbEntity
  8
1
100
AcDbLine
 10
0.0
 20
-22.517622871
 30
0.0
 11
0.482161739
 21
-23.027687488
 31
0.0
  0
LINE
  5
39
330
1D
100
AcDbEntity
  8
1
100
AcDbLine
 10
0.482161739
 20
22.999784609
 30
0.0
 11
0.0
 21
22.489719992
 31
0.0
  0
LINE
  5
3A
330
1D
100
AcDbEntity
  8
1
100
AcDbLine
 10
33.993563736
 20
-23.283277854
 30
0.0
 11
41.991644801
 21
-23.283277854
 31
0.0
  0
LINE
  5
3B
330
1D
100
AcDbEntity
  8
1
100
AcDbLine
 10
50.442868612
 20
-21.014215782
 30
0.0
 11
41.991644801
 21
-23.283277854
 31
0.0
  0
LINE
  5
3C
330
1D
100
AcDbEntity
  8
1
100
AcDbLine
 10
25.542339926
 20
-21.014215782
 30
0.0
 11
33.993563736
 21
-23.283277854
 31
0.0
  0
LINE
  5
3D
330
1D
100
AcDbEntity
  8
1
100
AcDbLine
 10
23.273277854
 20
24.500191698
 30
0.0
 11
23.273277854
 21
6.664323478
 31
0.0
  0
LINE
  5
3E
330
1D
100
AcDbEntity
  8
SK4
100
AcDbLine
 10
38.002604269
 20
-25.296749559
 30
0.0
 11
38.002604269
 21
25.75100842
 31
0.0
  0
LINE
  5
3F
330
1D
100
AcDbEntity
  8
SK4
100
AcDbLine
 10
-32.019111024
 20
0.0
 30
0.0
 11
55.023895633
 21
0.0
 31
0.0
  0
LINE
  5
40
330
1D
100
AcDbEntity
  8
SK1
100
AcDbLine
 10
-25.524437047
 20
-14.000477188
 30
0.0
 11
0.0
 21
-14.000477188
 31
0.0
  0
LINE
  5
41
330
1D
100
AcDbEntity
  8
SK1
100
AcDbLine
 10
-25.524437047
 20
13.99957431
 30
0.0
 11
0.0
 21
13.99957431
 31
0.0
  0
LINE
  5
42
330
1D
100
AcDbEntity
  8
SK1
100
AcDbLine
 10
-8.479126689
 20
0.0
 30
0.0
 11
-8.819541805
 21
1.531309967
 31
0.0
  0
LINE
  5
43
330
1D
100
AcDbEntity
  8
SK1
100
AcDbLine
 10
-8.819541805
 20
1.531309967
 30
0.0
 11
-9.671137654
 21
2.807029567
 31
0.0
  0
LINE
  5
44
330
1D
100
AcDbEntity
  8
SK1
100
AcDbLine
 10
-9.671137654
 20
2.807029567
 30
0.0
 11
-10.946857255
 21
3.658625416
 31
0.0
  0
LINE
  5
45
330
1D
100
AcDbEntity
  8
SK1
100
AcDbLine
 10
-10.946857255
 20
3.658625416
 30
0.0
 11
-12.478167221
 21
3.999040533
 31
0.0
  0
LINE
  5
46
330
1D
100
AcDbEntity
  8
SK1
100
AcDbLine
 10
-12.478167221
 20
3.999040533
 30
0.0
 11
-14.038496182
 21
3.658625416
 31
0.0
  0
LINE
  5
47
330
1D
100
AcDbEntity
  8
SK1
100
AcDbLine
 10
-14.038496182
 20
3.658625416
 30
0.0
 11
-15.314215782
 21
2.807029567
 31
0.0
  0
LINE
  5
48
330
1D
100
AcDbEntity
  8
SK1
100
AcDbLine
 10
-15.314215782
 20
2.807029567
 30
0.0
 11
-16.164695516
 21
1.531309967
 31
0.0
  0
LINE
  5
49
330
1D
100
AcDbEntity
  8
SK1
100
AcDbLine
 10
-16.164695516
 20
1.531309967
 30
0.0
 11
-16.477207754
 21
0.0
 31
0.0
  0
LINE
  5
4A
330
1D
100
AcDbEntity
  8
SK1
100
AcDbLine
 10
-16.477207754
 20
0.0
 30
0.0
 11
-16.164695516
 21
-1.56032896
 31
0.0
  0
LINE
  5
4B
330
1D
100
AcDbEntity
  8
SK1
100
AcDbLine
 10
-16.164695516
 20
-1.56032896
 30
0.0
 11
-15.314215782
 21
-2.836048561
 31
0.0
  0
LINE
  5
4C
330
1D
100
AcDbEntity
  8
SK1
100
AcDbLine
 10
-15.314215782
 20
-2.836048561
 30
0.0
 11
-14.038496182
 21
-3.68764441
 31
0.0
  0
LINE
  5
4D
330
1D
100
AcDbEntity
  8
SK1
100
AcDbLine
 10
-14.038496182
 20
-3.68764441
 30
0.0
 11
-12.478167221
 21
-3.999040533
 31
0.0
  0
LINE
  5
4E
330
1D
100
AcDbEntity
  8
SK1
100
AcDbLine
 10
-12.478167221
 20
-3.999040533
 30
0.0
 11
-10.946857255
 21
-3.68764441
 31
0.0
  0
LINE
  5
4F
330
1D
100
AcDbEntity
  8
SK1
100
AcDbLine
 10
-10.946857255
 20
-3.68764441
 30
0.0
 11
-9.671137654
 21
-2.836048561
 31
0.0
  0
LINE
  5
50
330
1D
100
AcDbEntity
  8
SK1
100
AcDbLine
 10
-9.671137654
 20
-2.836048561
 30
0.0
 11
-8.819541805
 21
-1.56032896
 31
0.0
  0
LINE
  5
51
330
1D
100
AcDbEntity
  8
SK1
100
AcDbLine
 10
-8.819541805
 20
-1.56032896
 30
0.0
 11
-8.479126689
 21
0.0
 31
0.0
  0
LINE
  5
52
330
1D
100
AcDbEntity
  8
SK1
100
AcDbLine
 10
-25.524437047
 20
13.99957431
 30
0.0
 11
-27.537908753
 21
13.716081065
 31
0.0
  0
LINE
  5
53
330
1D
100
AcDbEntity
  8
SK1
100
AcDbLine
 10
-29.097121598
 20
13.99957431
 30
0.0
 11
-27.537908753
 21
13.716081065
 31
0.0
  0
LINE
  5
54
330
1D
100
AcDbEntity
  8
SK1
100
AcDbLine
 10
-29.097121598
 20
-14.000477188
 30
0.0
 11
-27.537908753
 21
-13.716983944
 31
0.0
  0
LINE
  5
55
330
1D
100
AcDbEntity
  8
SK1
100
AcDbLine
 10
-25.524437047
 20
-14.000477188
 30
0.0
 11
-27.537908753
 21
-13.716983944
 31
0.0
  0
LINE
  5
56
330
1D
100
AcDbEntity
  8
SK1
100
AcDbLine
 10
-25.524437047
 20
13.99957431
 30
0.0
 11
-25.524437047
 21
-14.000477188
 31
0.0
  0
LINE
  5
57
330
1D
100
AcDbEntity
  8
SK1
100
AcDbLine
 10
-29.069218719
 20
13.970555316
 30
0.0
 11
-29.183062463
 21
13.99957431
 31
0.0
  0
LINE
  5
58
330
1D
100
AcDbEntity
  8
SK1
100
AcDbLine
 10
-29.183062463
 20
13.99957431
 30
0.0
 11
-29.750048952
 21
13.743983944
 31
0.0
  0
LINE
  5
59
330
1D
100
AcDbEntity
  8
SK1
100
AcDbLine
 10
-29.750048952
 20
13.743983944
 30
0.0
 11
-29.976620325
 21
13.204900333
 31
0.0
  0
LINE
  5
5A
330
1D
100
AcDbEntity
  8
SK1
100
AcDbLine
 10
-29.976620325
 20
-13.177900333
 30
0.0
 11
-29.750048952
 21
-13.744886822
 31
0.0
  0
LINE
  5
5B
330
1D
100
AcDbEntity
  8
SK1
100
AcDbLine
 10
-29.750048952
 20
-13.744886822
 30
0.0
 11
-29.183062463
 21
-13.971458195
 31
0.0
  0
LINE
  5
5C
330
1D
100
AcDbEntity
  8
SK1
100
AcDbLine
 10
-29.183062463
 20
-13.971458195
 30
0.0
 11
-29.069218719
 21
-13.971458195
 31
0.0
  0
LINE
  5
5D
330
1D
100
AcDbEntity
  8
SK1
100
AcDbLine
 10
-30.033542197
 20
13.204900333
 30
0.0
 11
-30.033542197
 21
-13.205803211
 31
0.0
  0
LINE
  5
5E
330
1D
100
AcDbEntity
  8
1
100
AcDbLine
 10
0.0
 20
22.489719992
 30
0.0
 11
0.0
 21
-22.517622871
 31
0.0
  0
LINE
  5
5F
330
1D
100
AcDbEntity
  8
SK4
100
AcDbLine
 10
-12.507186215
 20
-6.012512238
 30
0.0
 11
-12.507186215
 21
5.983493245
 31
0.0
  0
LINE
  5
60
330
1D
100
AcDbEntity
  8
1
100
AcDbLine
 10
29.89067946
 20
2.694301939
 30
0.0
 11
29.777951831
 21
3.572684551
 31
0.0
  0
LINE
  5
61
330
1D
100
AcDbEntity
  8
1
100
AcDbLine
 10
29.777951831
 20
3.572684551
 30
0.0
 11
29.522361465
 21
4.424280399
 31
0.0
  0
LINE
  5
62
330
1D
100
AcDbEntity
  8
1
100
AcDbLine
 10
29.522361465
 20
4.424280399
 30
0.0
 11
29.097121598
 21
5.189935383
 31
0.0
  0
LINE
  5
63
330
1D
100
AcDbEntity
  8
1
100
AcDbLine
 10
29.097121598
 20
5.189935383
 30
0.0
 11
28.558037987
 21
5.870765616
 31
0.0
  0
LINE
  5
64
330
1D
100
AcDbEntity
  8
1
100
AcDbLine
 10
28.558037987
 20
5.870765616
 30
0.0
 11
27.877207754
 21
6.408733111
 31
0.0
  0
LINE
  5
65
330
1D
100
AcDbEntity
  8
1
100
AcDbLine
 10
27.877207754
 20
6.408733111
 30
0.0
 11
27.111552771
 21
6.835089093
 31
0.0
  0
LINE
  5
66
330
1D
100
AcDbEntity
  8
1
100
AcDbLine
 10
27.111552771
 20
6.835089093
 30
0.0
 11
26.261073037
 21
7.089563344
 31
0.0
  0
LINE
  5
67
330
1D
100
AcDbEntity
  8
1
100
AcDbLine
 10
26.261073037
 20
7.089563344
 30
0.0
 11
25.38157431
 21
7.203407088
 31
0.0
  0
LINE
  5
68
330
1D
100
AcDbEntity
  8
1
100
AcDbLine
 10
25.38157431
 20
7.203407088
 30
0.0
 11
24.474172704
 21
7.089563344
 31
0.0
  0
LINE
  5
69
330
1D
100
AcDbEntity
  8
1
100
AcDbLine
 10
24.474172704
 20
7.089563344
 30
0.0
 11
23.61369297
 21
6.835089093
 31
0.0
  0
LINE
  5
6A
330
1D
100
AcDbEntity
  8
1
100
AcDbLine
 10
23.61369297
 20
6.835089093
 30
0.0
 11
22.848037987
 21
6.408733111
 31
0.0
  0
LINE
  5
6B
330
1D
100
AcDbEntity
  8
1
100
AcDbLine
 10
22.848037987
 20
6.408733111
 30
0.0
 11
22.167207754
 21
5.870765616
 31
0.0
  0
LINE
  5
6C
330
1D
100
AcDbEntity
  8
1
100
AcDbLine
 10
22.167207754
 20
5.870765616
 30
0.0
 11
21.638124143
 21
5.189935383
 31
0.0
  0
LINE
  5
6D
330
1D
100
AcDbEntity
  8
1
100
AcDbLine
 10
21.638124143
 20
5.189935383
 30
0.0
 11
21.212884276
 21
4.424280399
 31
0.0
  0
LINE
  5
6E
330
1D
100
AcDbEntity
  8
1
100
AcDbLine
 10
21.212884276
 20
4.424280399
 30
0.0
 11
20.95729391
 21
3.572684551
 31
0.0
  0
LINE
  5
6F
330
1D
100
AcDbEntity
  8
1
100
AcDbLine
 10
20.95729391
 20
3.572684551
 30
0.0
 11
20.87246916
 21
2.694301939
 31
0.0
  0
LINE
  5
70
330
1D
100
AcDbEntity
  8
1
100
AcDbLine
 10
20.87246916
 20
2.694301939
 30
0.0
 11
20.95729391
 21
1.786900333
 31
0.0
  0
LINE
  5
71
330
1D
100
AcDbEntity
  8
1
100
AcDbLine
 10
20.95729391
 20
1.786900333
 30
0.0
 11
21.212884276
 21
0.935304484
 31
0.0
  0
LINE
  5
72
330
1D
100
AcDbEntity
  8
1
100
AcDbLine
 10
21.212884276
 20
0.935304484
 30
0.0
 11
21.638124143
 21
0.169649501
 31
0.0
  0
LINE
  5
73
330
1D
100
AcDbEntity
  8
1
100
AcDbLine
 10
21.638124143
 20
0.169649501
 30
0.0
 11
22.167207754
 21
-0.511180732
 31
0.0
  0
LINE
  5
74
330
1D
100
AcDbEntity
  8
1
100
AcDbLine
 10
22.167207754
 20
-0.511180732
 30
0.0
 11
22.848037987
 21
-1.049148228
 31
0.0
  0
LINE
  5
75
330
1D
100
AcDbEntity
  8
1
100
AcDbLine
 10
22.848037987
 20
-1.049148228
 30
0.0
 11
23.61369297
 21
-1.47550421
 31
0.0
  0
LINE
  5
76
330
1D
100
AcDbEntity
  8
1
100
AcDbLine
 10
23.61369297
 20
-1.47550421
 30
0.0
 11
24.464172704
 21
-1.729978461
 31
0.0
  0
LINE
  5
77
330
1D
100
AcDbEntity
  8
1
100
AcDbLine
 10
24.464172704
 20
-1.729978461
 30
0.0
 11
25.38157431
 21
-1.814803211
 31
0.0
  0
LINE
  5
78
330
1D
100
AcDbEntity
  8
1
100
AcDbLine
 10
25.38157431
 20
-1.814803211
 30
0.0
 11
26.261073037
 21
-1.729978461
 31
0.0
  0
LINE
  5
79
330
1D
100
AcDbEntity
  8
1
100
AcDbLine
 10
26.261073037
 20
-1.729978461
 30
0.0
 11
27.111552771
 21
-1.47550421
 31
0.0
  0
LINE
  5
7A
330
1D
100
AcDbEntity
  8
1
100
AcDbLine
 10
27.111552771
 20
-1.47550421
 30
0.0
 11
27.877207754
 21
-1.049148228
 31
0.0
  0
LINE
  5
7B
330
1D
100
AcDbEntity
  8
1
100
AcDbLine
 10
27.877207754
 20
-1.049148228
 30
0.0
 11
28.558037987
 21
-0.511180732
 31
0.0
  0
LINE
  5
7C
330
1D
100
AcDbEntity
  8
1
100
AcDbLine
 10
28.558037987
 20
-0.511180732
 30
0.0
 11
29.097121598
 21
0.169649501
 31
0.0
  0
LINE
  5
7D
330
1D
100
AcDbEntity
  8
1
100
AcDbLine
 10
29.097121598
 20
0.169649501
 30
0.0
 11
29.522361465
 21
0.935304484
 31
0.0
  0
LINE
  5
7E
330
1D
100
AcDbEntity
  8
1
100
AcDbLine
 10
29.522361465
 20
0.935304484
 30
0.0
 11
29.777951831
 21
1.786900333
 31
0.0
  0
LINE
  5
7F
330
1D
100
AcDbEntity
  8
1
100
AcDbLine
 10
29.777951831
 20
1.786900333
 30
0.0
 11
29.89067946
 21
2.694301939
 31
0.0
  0
LINE
  5
80
330
1D
100
AcDbEntity
  8
1
100
AcDbLine
 10
23.08460936
 20
2.694301939
 30
0.0
 11
24.247601332
 21
4.67875465
 31
0.0
  0
LINE
  5
81
330
1D
100
AcDbEntity
  8
1
100
AcDbLine
 10
24.247601332
 20
4.67875465
 30
0.0
 11
26.544566282
 21
4.67875465
 31
0.0
  0
LINE
  5
82
330
1D
100
AcDbEntity
  8
1
100
AcDbLine
 10
26.544566282
 20
4.67875465
 30
0.0
 11
27.707558253
 21
2.694301939
 31
0.0
  0
LINE
  5
83
330
1D
100
AcDbEntity
  8
1
100
AcDbLine
 10
24.247601332
 20
0.680830233
 30
0.0
 11
23.08460936
 21
2.694301939
 31
0.0
  0
LINE
  5
84
330
1D
100
AcDbEntity
  8
1
100
AcDbLine
 10
26.544566282
 20
0.680830233
 30
0.0
 11
24.247601332
 21
0.680830233
 31
0.0
  0
LINE
  5
85
330
1D
100
AcDbEntity
  8
1
100
AcDbLine
 10
27.707558253
 20
2.694301939
 30
0.0
 11
26.544566282
 21
0.680830233
 31
0.0
  0
LINE
  5
86
330
1D
100
AcDbEntity
  8
SK3
100
AcDbLine
 10
-2.013471706
 20
6.749148228
 30
0.0
 11
-2.013471706
 21
-6.750264343
 31
0.0
  0
LINE
  5
87
330
1D
100
AcDbEntity
  8
3
100
AcDbLine
 10
0.0
 20
-3.251994628288986
 30
0.0
 11
1.871725083
 21
0.0
 31
0.0
  0
LINE
  5
88
330
1D
100
AcDbEntity
  8
3
100
AcDbLine
 10
0.0
 20
3.251456930830024
 30
0.0
 11
1.871725083
 21
0.0
 31
0.0
  0
LINE
  5
89
330
1D
100
AcDbEntity
  8
SK3
100
AcDbLine
 10
-30.033542197
 20
-6.750264343
 30
0.0
 11
-2.013471706
 21
-6.750264343
 31
0.0
  0
LINE
  5
8A
330
1D
100
AcDbEntity
  8
SK3
100
AcDbLine
 10
-30.033542197
 20
6.749148228
 30
0.0
 11
-2.013471706
 21
6.749148228
 31
0.0
  0
LINE
  5
8B
330
1D
100
AcDbEntity
  8
3
100
AcDbLine
 10
27.991051498
 20
-21.014215782
 30
0.0
 11
27.991051498
 21
22.489719992
 31
0.0
  0
LINE
  5
8C
330
1D
100
AcDbEntity
  8
3
100
AcDbLine
 10
48.013040924
 20
-21.014215782
 30
0.0
 11
48.013040924
 21
17.129018994
 31
0.0
  0
LINE
  5
8D
330
1D
100
AcDbEntity
  8
3
100
AcDbLine
 10
0.008918297364555
 20
3.235964559626285
 30
0.0
 11
39.221401997
 21
19.482905816
 31
0.0
  0
LINE
  5
8E
330
1D
100
AcDbEntity
  8
SK4
100
AcDbLine
 10
-3.090522812
 20
4.140787155
 30
0.0
 11
37.916663403
 21
21.100156648
 31
0.0
  0
LINE
  5
8F
330
1D
100
AcDbEntity
  8
SK3
100
AcDbLine
 10
-2.013471706
 20
6.749148228
 30
0.0
 11
0.0
 21
7.582420011332255
 31
0.0
  0
LINE
  5
90
330
1D
100
AcDbEntity
  8
1
100
AcDbLine
 10
47.499994348
 20
17.273117724
 30
0.0
 11
47.499994348
 21
20.566324304
 31
0.0
  0
LINE
  5
91
330
1D
100
AcDbEntity
  8
1
100
AcDbLine
 10
47.499994348
 20
22.843607019
 30
0.0
 11
47.499994348
 21
23.999826501
 31
0.0
  0
LINE
  5
92
330
1D
100
AcDbEntity
  8
1
100
AcDbLine
 10
47.7999974
 20
23.999826501
 30
0.0
 11
48.65899093
 21
24.858820032
 31
0.0
  0
ARC
  5
93
330
1D
100
AcDbEntity
  8
1
100
AcDbCircle
 10
30.499990533
 20
21.999826501
 30
0.0
 40
2.0
100
AcDbArc
 50
90.0
 51
169.603454234
  0
ARC
  5
94
330
1D
100
AcDbEntity
  8
1
100
AcDbCircle
 10
45.500005792
 20
21.999826501
 30
0.0
 40
2.0
100
AcDbArc
 50
60.000350475
 51
90.0
  0
LINE
  5
95
330
1D
100
AcDbEntity
  8
1
100
AcDbLine
 10
46.499994348
 20
17.541351143
 30
0.0
 11
46.499994348
 21
23.689432214
 31
0.0
  0
LINE
  5
97
330
1D
100
AcDbEntity
  8
1
100
AcDbLine
 10
42.499994348
 20
23.999826501
 30
0.0
 11
43.787317346
 21
23.999826501
 31
0.0
  0
LINE
  5
98
330
1D
100
AcDbEntity
  8
1
100
AcDbLine
 10
50.382215803
 20
16.500009607
 30
0.0
 11
55.362905572
 21
16.500009607
 31
0.0
  0
LINE
  5
99
330
1D
100
AcDbEntity
  8
1
100
AcDbLine
 10
54.910516809
 20
25.960718225
 30
0.0
 11
48.659013818
 21
24.85883529
 31
0.0
  0
ARC
  5
9A
330
1D
100
AcDbEntity
  8
1
100
AcDbCircle
 10
37.999994348
 20
43.611922254
 30
0.0
 40
20.099640343
100
AcDbArc
 50
257.3550321500001
 51
270.0
  0
ARC
  5
9B
330
1D
100
AcDbEntity
  8
1
100
AcDbCircle
 10
37.999994348
 20
43.611922254
 30
0.0
 40
20.099934498
100
AcDbArc
 50
270.0
 51
282.645000766
  0
LINE
  5
9C
330
1D
100
AcDbEntity
  8
1
100
AcDbLine
 10
42.400003503
 20
23.999826501
 30
0.0
 11
47.7999974
 21
23.999826501
 31
0.0
  0
LINE
  5
9D
330
1D
100
AcDbEntity
  8
1
100
AcDbLine
 10
33.599851678
 20
23.999826501
 30
0.0
 11
30.499990533
 21
23.999826501
 31
0.0
  0
LINE
  5
9E
330
1D
100
AcDbEntity
  8
1
100
AcDbLine
 10
55.020799707
 20
25.744257043
 30
0.0
 11
54.910516809
 21
25.960718225
 31
0.0
  0
LINE
  5
9F
330
1D
100
AcDbEntity
  8
1
100
AcDbLine
 10
48.707788537
 20
23.302774499
 30
0.0
 11
50.087209772
 21
23.230478357
 31
0.0
  0
LINE
  5
A0
330
1D
100
AcDbEntity
  8
1
100
AcDbLine
 10
48.540308069
 20
20.107141565
 30
0.0
 11
49.916593622
 21
20.035020898
 31
0.0
  0
ARC
  5
A1
330
1D
100
AcDbEntity
  8
1
100
AcDbCircle
 10
48.624048303
 20
21.704965661
 30
0.0
 40
1.600000131
100
AcDbArc
 50
87.00000268199999
 51
266.9999999999999
  0
ARC
  5
A2
330
1D
100
AcDbEntity
  8
1
100
AcDbCircle
 10
56.096918176
 20
16.500284265
 30
0.0
 40
0.400000033
100
AcDbArc
 50
236.999856949
 51
356.9999999999999
  0
LINE
  5
A3
330
1D
100
AcDbEntity
  8
1
100
AcDbLine
 10
56.999445032
 20
26.079065393
 30
0.0
 11
56.496332239
 21
16.479364465
 31
0.0
  0
ARC
  5
A4
330
1D
100
AcDbEntity
  8
1
100
AcDbCircle
 10
56.600000452
 20
26.100000452
 30
0.0
 40
0.399999548
100
AcDbArc
 50
356.9999999999999
 51
117.000043809
  0
LINE
  5
A5
330
1D
100
AcDbEntity
  8
1
100
AcDbLine
 10
55.879053186
 20
16.164819787
 30
0.0
 11
47.81701095
 21
21.400369714
 31
0.0
  0
LINE
  5
A6
330
1D
100
AcDbEntity
  8
1
100
AcDbLine
 10
47.853265832
 20
22.092233728
 30
0.0
 11
56.418420862
 21
26.456384729
 31
0.0
  0
ARC
  5
A7
330
1D
100
AcDbEntity
  8
1
100
AcDbCircle
 10
48.034845422
 20
21.735834192
 30
0.0
 40
0.400001243
100
AcDbArc
 50
117.000018328
 51
236.999953508
  0
LINE
  5
A9
330
1D
100
AcDbEntity
  8
SK4
100
AcDbLine
 10
53.577280115
 20
17.695367883
 30
0.0
 11
53.577280115
 21
25.195367883
 31
0.0
  0
LINE
  5
AA
330
1D
100
AcDbEntity
  8
SK4
100
AcDbLine
 10
57.327280115
 20
21.445367883
 30
0.0
 11
49.827280115
 21
21.445367883
 31
0.0
  0
LINE
  5
AB
330
1D
100
AcDbEntity
  8
2
100
AcDbLine
 10
0.0
 20
37.999999647
 30
0.0
 11
0.0
 21
22.489719992
 31
0.0
  0
LINE
  5
AC
330
1D
100
AcDbEntity
  8
2
100
AcDbLine
 10
0.0
 20
35.999999647
 30
0.0
 11
3.499999997
 21
36.449999673
 31
0.0
  0
LINE
  5
AD
330
1D
100
AcDbEntity
  8
2
100
AcDbLine
 10
3.499999997
 20
36.449999673
 30
0.0
 11
3.500000003
 21
35.549999673
 31
0.0
  0
LINE
  5
AE
330
1D
100
AcDbEntity
  8
2
100
AcDbLine
 10
3.500000003
 20
35.549999673
 30
0.0
 11
0.0
 21
35.999999647
 31
0.0
  0
LINE
  5
AF
330
1D
100
AcDbEntity
  8
2
100
AcDbLine
 10
57.0
 20
38.000000071
 30
0.0
 11
57.0
 21
26.100000452
 31
0.0
  0
LINE
  5
B0
330
1D
100
AcDbEntity
  8
2
100
AcDbLine
 10
57.0
 20
36.000000071
 30
0.0
 11
53.500000003
 21
35.550000045
 31
0.0
  0
LINE
  5
B1
330
1D
100
AcDbEntity
  8
2
100
AcDbLine
 10
53.500000003
 20
35.550000045
 30
0.0
 11
53.499999997
 21
36.450000045
 31
0.0
  0
LINE
  5
B2
330
1D
100
AcDbEntity
  8
2
100
AcDbLine
 10
53.499999997
 20
36.450000045
 30
0.0
 11
57.0
 21
36.000000071
 31
0.0
  0
LINE
  5
B3
330
1D
100
AcDbEntity
  8
2
100
AcDbLine
 10
3.5
 20
35.999999673
 30
0.0
 11
53.5
 21
36.000000045
 31
0.0
  0
TEXT
  5
B4
330
1D
100
AcDbEntity
  8
2
100
AcDbText
 10
26.944686852
 20
37.499999847
 30
0.0
 40
3.5
  1
57
 50
0.000000425
  7
BMG_Text
100
AcDbText
  0
LINE
  5
B5
330
1D
100
AcDbEntity
  8
2
100
AcDbLine
 10
-50.000000882
 20
-24.500094576
 30
0.0
 11
0.993342471
 21
-24.500094576
 31
0.0
  0
LINE
  5
B6
330
1D
100
AcDbEntity
  8
2
100
AcDbLine
 10
-48.000000882
 20
-24.500094576
 30
0.0
 11
-48.450000882
 21
-21.000094576
 31
0.0
  0
LINE
  5
B7
330
1D
100
AcDbEntity
  8
2
100
AcDbLine
 10
-48.450000882
 20
-21.000094576
 30
0.0
 11
-47.550000882
 21
-21.000094576
 31
0.0
  0
LINE
  5
B8
330
1D
100
AcDbEntity
  8
2
100
AcDbLine
 10
-47.550000882
 20
-21.000094576
 30
0.0
 11
-48.000000882
 21
-24.500094576
 31
0.0
  0
LINE
  5
B9
330
1D
100
AcDbEntity
  8
2
100
AcDbLine
 10
-50.000000882
 20
24.500191698
 30
0.0
 11
0.993342471
 21
24.500191698
 31
0.0
  0
LINE
  5
BA
330
1D
100
AcDbEntity
  8
2
100
AcDbLine
 10
-48.000000882
 20
24.500191698
 30
0.0
 11
-47.550000882
 21
21.000191698
 31
0.0
  0
LINE
  5
BB
330
1D
100
AcDbEntity
  8
2
100
AcDbLine
 10
-47.550000882
 20
21.000191698
 30
0.0
 11
-48.450000882
 21
21.000191698
 31
0.0
  0
LINE
  5
BC
330
1D
100
AcDbEntity
  8
2
100
AcDbLine
 10
-48.450000882
 20
21.000191698
 30
0.0
 11
-48.000000882
 21
24.500191698
 31
0.0
  0
LINE
  5
BD
330
1D
100
AcDbEntity
  8
2
100
AcDbLine
 10
-48.000000882
 20
-21.000094576
 30
0.0
 11
-48.000000882
 21
21.000191698
 31
0.0
  0
TEXT
  5
BE
330
1D
100
AcDbEntity
  8
2
100
AcDbText
 10
-49.500000882
 20
0.140048013
 30
0.0
 40
3.5
  1
49
 50
90.0
  7
BMG_Text
100
AcDbText
  0
CIRCLE
  5
BF
330
1D
100
AcDbEntity
  8
2
100
AcDbCircle
 10
-50.750000882
 20
-2.109951987
 30
0.0
 40
1.25
  0
LINE
  5
C0
330
1D
100
AcDbEntity
  8
2
100
AcDbLine
 10
-49.500000882
 20
-3.359951987
 30
0.0
 11
-52.000000882
 21
-0.859951987
 31
0.0
  0
LINE
  5
C1
330
1D
100
AcDbEntity
  8
SK2
100
AcDbLine
 10
-42.000000096
 20
-14.000477188
 30
0.0
 11
-25.524437047
 21
-14.000477188
 31
0.0
  0
LINE
  5
C2
330
1D
100
AcDbEntity
  8
SK2
100
AcDbLine
 10
-40.000000096
 20
-14.000477188
 30
0.0
 11
-40.450000096
 21
-10.500477188
 31
0.0
  0
LINE
  5
C3
330
1D
100
AcDbEntity
  8
SK2
100
AcDbLine
 10
-40.450000096
 20
-10.500477188
 30
0.0
 11
-39.550000096
 21
-10.500477188
 31
0.0
  0
LINE
  5
C4
330
1D
100
AcDbEntity
  8
SK2
100
AcDbLine
 10
-39.550000096
 20
-10.500477188
 30
0.0
 11
-40.000000096
 21
-14.000477188
 31
0.0
  0
LINE
  5
C5
330
1D
100
AcDbEntity
  8
SK2
100
AcDbLine
 10
-42.000000096
 20
13.99957431
 30
0.0
 11
-25.524437047
 21
13.99957431
 31
0.0
  0
LINE
  5
C6
330
1D
100
AcDbEntity
  8
SK2
100
AcDbLine
 10
-40.000000096
 20
13.99957431
 30
0.0
 11
-39.550000096
 21
10.49957431
 31
0.0
  0
LINE
  5
C7
330
1D
100
AcDbEntity
  8
SK2
100
AcDbLine
 10
-39.550000096
 20
10.49957431
 30
0.0
 11
-40.450000096
 21
10.49957431
 31
0.0
  0
LINE
  5
C8
330
1D
100
AcDbEntity
  8
SK2
100
AcDbLine
 10
-40.450000096
 20
10.49957431
 30
0.0
 11
-40.000000096
 21
13.99957431
 31
0.0
  0
LINE
  5
C9
330
1D
100
AcDbEntity
  8
SK2
100
AcDbLine
 10
-40.000000096
 20
-10.500477188
 30
0.0
 11
-40.000000096
 21
10.49957431
 31
0.0
  0
TEXT
  5
CA
330
1D
100
AcDbEntity
  8
SK2
100
AcDbText
 10
-41.500000096
 20
0.084860748
 30
0.0
 40
3.5
  1
28
 50
90.0
  7
BMG_Text
100
AcDbText
  0
CIRCLE
  5
CB
330
1D
100
AcDbEntity
  8
SK2
100
AcDbCircle
 10
-42.750000096
 20
-2.165139252
 30
0.0
 40
1.25
  0
LINE
  5
CC
330
1D
100
AcDbEntity
  8
SK2
100
AcDbLine
 10
-41.500000096
 20
-3.415139252
 30
0.0
 11
-44.000000096
 21
-0.915139252
 31
0.0
  0
LINE
  5
CD
330
1D
100
AcDbEntity
  8
2
100
AcDbLine
 10
0.0
 20
-42.000000877
 30
0.0
 11
0.0
 21
-22.517622871
 31
0.0
  0
LINE
  5
CE
330
1D
100
AcDbEntity
  8
2
100
AcDbLine
 10
0.0
 20
-40.000000877
 30
0.0
 11
3.499999989
 21
-39.550000793
 31
0.0
  0
LINE
  5
CF
330
1D
100
AcDbEntity
  8
2
100
AcDbLine
 10
3.499999989
 20
-39.550000793
 30
0.0
 11
3.500000011
 21
-40.450000793
 31
0.0
  0
LINE
  5
D0
330
1D
100
AcDbEntity
  8
2
100
AcDbLine
 10
3.500000011
 20
-40.450000793
 30
0.0
 11
0.0
 21
-40.000000877
 31
0.0
  0
LINE
  5
D1
330
1D
100
AcDbEntity
  8
2
100
AcDbLine
 10
53.000423928
 20
-41.999999604
 30
0.0
 11
53.000423928
 21
-20.021989426
 31
0.0
  0
LINE
  5
D2
330
1D
100
AcDbEntity
  8
2
100
AcDbLine
 10
53.000423928
 20
-39.999999604
 30
0.0
 11
49.500423939
 21
-40.449999688
 31
0.0
  0
LINE
  5
D3
330
1D
100
AcDbEntity
  8
2
100
AcDbLine
 10
49.500423939
 20
-40.449999688
 30
0.0
 11
49.500423917
 21
-39.549999688
 31
0.0
  0
LINE
  5
D4
330
1D
100
AcDbEntity
  8
2
100
AcDbLine
 10
49.500423917
 20
-39.549999688
 30
0.0
 11
53.000423928
 21
-39.999999604
 31
0.0
  0
LINE
  5
D5
330
1D
100
AcDbEntity
  8
2
100
AcDbLine
 10
3.5
 20
-40.000000793
 30
0.0
 11
49.500423928
 21
-39.999999688
 31
0.0
  0
TEXT
  5
D6
330
1D
100
AcDbEntity
  8
2
100
AcDbText
 10
25.136305086
 20
-38.500000273
 30
0.0
 40
3.5
  1
53
 50
0.000001377
  7
BMG_Text
100
AcDbText
  0
LINE
  5
D7
330
1D
100
AcDbEntity
  8
2
100
AcDbLine
 10
73.999999117
 20
26.500000761
 30
0.0
 11
56.600000452
 21
26.5
 31
0.0
  0
LINE
  5
D8
330
1D
100
AcDbEntity
  8
2
100
AcDbLine
 10
71.999999117
 20
26.500000673
 30
0.0
 11
72.44999927
 21
23.000000693
 31
0.0
  0
LINE
  5
D9
330
1D
100
AcDbEntity
  8
2
100
AcDbLine
 10
72.44999927
 20
23.000000693
 30
0.0
 11
71.54999927
 21
23.000000653
 31
0.0
  0
LINE
  5
DA
330
1D
100
AcDbEntity
  8
2
100
AcDbLine
 10
71.54999927
 20
23.000000653
 30
0.0
 11
71.999999117
 21
26.500000673
 31
0.0
  0
LINE
  5
DB
330
1D
100
AcDbEntity
  8
2
100
AcDbLine
 10
72.000000391
 20
-2.649999251
 30
0.0
 11
71.99999927
 21
23.000000673
 31
0.0
  0
CIRCLE
  5
DC
330
1D
100
AcDbEntity
  8
2
100
AcDbCircle
 10
69.249999978
 20
6.807187765
 30
0.0
 40
1.25
  0
LINE
  5
DD
330
1D
100
AcDbEntity
  8
2
100
AcDbLine
 10
70.500000032
 20
5.55718782
 30
0.0
 11
67.999999923
 21
8.05718771
 31
0.0
  0
TEXT
  5
DE
330
1D
100
AcDbEntity
  8
2
100
AcDbText
 10
70.499999879
 20
9.05718782
 30
0.0
 40
3.5
  1
53-70
 50
90.00000250400001
  7
BMG_Text
100
AcDbText
  0
TEXT
  5
DF
330
1D
100
AcDbEntity
  8
SK6
100
AcDbText
 10
63.29465060667464
 20
-48.43702178996179
 30
0.0
 40
3.5
  1
310.505A
  7
BMG_Text
100
AcDbText
  0
LINE
  5
185
330
1D
100
AcDbEntity
  8
3
100
AcDbLine
 10
55.020799707
 20
25.744257043
 30
0.0
 11
56.5905329237667
 21
26.08126266288604
 31
0.0
  0
LINE
  5
186
330
1D
100
AcDbEntity
  8
3
100
AcDbLine
 10
56.5905329237667
 20
26.08126266288604
 30
0.0
 11
56.12109366056823
 21
16.50888421586139
 31
0.0
  0
LINE
  5
187
330
1D
100
AcDbEntity
  8
3
100
AcDbLine
 10
56.12109366056823
 20
16.50888421586139
 30
0.0
 11
55.36603337029248
 21
16.50888421586139
 31
0.0
  0
LINE
  5
188
330
1D
100
AcDbEntity
  8
1
100
AcDbLine
 10
50.087209772
 20
23.230478357
 30
0.0
 11
55.020799707
 21
25.744257043
 31
0.0
  0
LINE
  5
18F
330
1D
100
AcDbEntity
  8
1
100
AcDbLine
 10
49.916593622
 20
20.035020898
 30
0.0
 11
55.362905572
 21
16.500009607
 31
0.0
  0
LINE
  5
193
330
1D
100
AcDbEntity
  8
NOCUT
100
AcDbLine
 10
0.0
 20
-0.0139514395000013
 30
0.0
 11
0.0
 21
22.489719992
 31
0.0
  0
LINE
  5
194
330
1D
100
AcDbEntity
  8
NOCUT
100
AcDbLine
 10
0.0
 20
22.489719992
 30
0.0
 11
0.482161739
 21
22.999784609
 31
0.0
  0
LINE
  5
195
330
1D
100
AcDbEntity
  8
NOCUT
100
AcDbLine
 10
0.482161739
 20
22.999784609
 30
0.0
 11
0.482161739
 21
23.99012708
 31
0.0
  0
LINE
  5
196
330
1D
100
AcDbEntity
  8
NOCUT
100
AcDbLine
 10
0.482161739
 20
23.99012708
 30
0.0
 11
0.993342471
 21
24.500191698
 31
0.0
  0
LINE
  5
197
330
1D
100
AcDbEntity
  8
NOCUT
100
AcDbLine
 10
0.993342471
 20
24.500191698
 30
0.0
 11
24.666777468
 21
24.500191698
 31
0.0
  0
LINE
  5
198
330
1D
100
AcDbEntity
  8
NOCUT
100
AcDbLine
 10
24.666777468
 20
24.500191698
 30
0.0
 11
24.975353436
 21
23.312296847
 31
0.0
  0
LINE
  5
199
330
1D
100
AcDbEntity
  8
NOCUT
100
AcDbLine
 10
24.975353436
 20
23.312296847
 30
0.0
 11
28.53282582875962
 21
22.36074619621054
 31
0.0
  0
LINE
  5
19A
330
1D
100
AcDbEntity
  8
NOCUT
100
AcDbLine
 10
30.499990533
 20
23.999826501
 30
0.0
 11
33.599851678
 21
23.999826501
 31
0.0
  0
LINE
  5
19B
330
1D
100
AcDbEntity
  8
NOCUT
100
AcDbLine
 10
42.4000643822961
 20
23.99950907975803
 30
0.0
 11
47.7999974
 21
23.999826501
 31
0.0
  0
LINE
  5
19C
330
1D
100
AcDbEntity
  8
NOCUT
100
AcDbLine
 10
47.7999974
 20
23.999826501
 30
0.0
 11
48.65899093
 21
24.858820032
 31
0.0
  0
LINE
  5
19D
330
1D
100
AcDbEntity
  8
NOCUT
100
AcDbLine
 10
48.65899093
 20
24.858820032
 30
0.0
 11
54.910516809
 21
25.960718225
 31
0.0
  0
LINE
  5
19E
330
1D
100
AcDbEntity
  8
NOCUT
100
AcDbLine
 10
54.910516809
 20
25.960718225
 30
0.0
 11
55.020799707
 21
25.744257043
 31
0.0
  0
LINE
  5
19F
330
1D
100
AcDbEntity
  8
NOCUT
100
AcDbLine
 10
55.020799707
 20
25.744257043
 30
0.0
 11
56.5905329237667
 21
26.08126266288604
 31
0.0
  0
LINE
  5
1A0
330
1D
100
AcDbEntity
  8
NOCUT
100
AcDbLine
 10
56.5905329237667
 20
26.08126266288604
 30
0.0
 11
56.12109366056823
 21
16.50888421586139
 31
0.0
  0
LINE
  5
1A1
330
1D
100
AcDbEntity
  8
NOCUT
100
AcDbLine
 10
56.12109366056823
 20
16.50888421586139
 30
0.0
 11
55.36603337029248
 21
16.50888421586139
 31
0.0
  0
LINE
  5
1A4
330
1D
100
AcDbEntity
  8
NOCUT
100
AcDbLine
 10
53.000423928
 20
15.796377521
 30
0.0
 11
53.000423928
 21
0.0
 31
0.0
  0
LINE
  5
1A5
330
1D
100
AcDbEntity
  8
NOCUT
100
AcDbLine
 10
53.000423928
 20
0.0
 30
0.0
 11
0.007191757226586
 21
0.0000000000000065
 31
0.0
  0
LINE
  5
1B2
330
1D
100
AcDbEntity
  8
NOCUT
100
AcDbLine
 10
55.36603337029248
 20
16.50888421586139
 30
0.0
 11
53.00879121275001
 21
16.50888421586139
 31
0.0
  0
LINE
  5
1B3
330
1D
100
AcDbEntity
  8
NOCUT
100
AcDbLine
 10
53.00879121275001
 20
16.50888421586139
 30
0.0
 11
53.00879121275001
 21
16.50888421586139
 31
0.0
  0
LINE
  5
1B4
330
1D
100
AcDbEntity
  8
NOCUT
100
AcDbLine
 10
53.00879121275001
 20
16.50888421586139
 30
0.0
 11
53.00879121275001
 21
15.73839101539566
 31
0.0
  0
ARC
  5
1B6
330
1D
100
AcDbEntity
  8
NOCUT
100
AcDbCircle
 10
30.499990533
 20
21.999826501
 30
0.0
 40
2.000000000000004
100
AcDbArc
 50
90.00000000000009
 51
169.6034542339999
  0
ARC
  5
1B8
330
1D
100
AcDbEntity
  8
NOCUT
100
AcDbCircle
 10
38.00066640883046
 20
43.61798788095358
 30
0.0
 40
20.10570598118586
100
AcDbArc
 50
257.356947340106
 51
282.6393480911226
  0
LWPOLYLINE
  5
223
330
1D
100
AcDbEntity
  8
INFTOTAL
100
AcDbPolyline
 90
        4
 70
     1
 43
0.0
 10
-63.26116991651422
 20
48.91284003752983
 10
-63.26116991651422
 20
-50.8807731033024
 10
90.3259527840426
 20
-50.8807731033024
 10
90.3259527840426
 20
48.91284003752983
  0
LINE
  5
228
330
1D
100
AcDbEntity
  8
3
100
AcDbLine
 10
0.0
 20
7.582420011332255
 30
0.0
 11
32.868474643
 21
21.184981398
 31
0.0
  0
LINE
  5
22B
330
1D
100
AcDbEntity
  8
SK3
100
AcDbLine
 10
-2.013471706
 20
-6.750264343
 30
0.0
 11
0.0
 21
-3.251994628288987
 31
0.0
  0
LINE
  5
22C
330
1D
100
AcDbEntity
  8
SK3
100
AcDbLine
 10
-2.013471706
 20
6.749148228
 30
0.0
 11
0.0
 21
3.251456930830024
 31
0.0
  0
LINE
  5
23D
330
1D
100
AcDbEntity
  8
4
100
AcDbLine
 10
55.023895633
 20
0.0
 30
0.0
 11
0.0
 21
0.0
 31
0.0
  0
LINE
  5
23E
330
1D
100
AcDbEntity
  8
4
100
AcDbLine
 10
25.38157431
 20
9.188975915
 30
0.0
 11
25.38157431
 21
-3.800372038
 31
0.0
  0
LINE
  5
23F
330
1D
100
AcDbEntity
  8
4
100
AcDbLine
 10
31.90526728
 20
2.694301939
 30
0.0
 11
18.886900333
 21
2.694301939
 31
0.0
  0
LINE
  5
244
330
1D
100
AcDbEntity
  8
4
100
AcDbLine
 10
57.327280115
 20
21.445367883
 30
0.0
 11
49.827280115
 21
21.445367883
 31
0.0
  0
LINE
  5
245
330
1D
100
AcDbEntity
  8
4
100
AcDbLine
 10
53.577280115
 20
25.195367883
 30
0.0
 11
53.577280115
 21
17.695367883
 31
0.0
  0
LINE
  5
246
330
1D
100
AcDbEntity
  8
4
100
AcDbLine
 10
37.916663403
 20
21.100156648
 30
0.0
 11
0.0
 21
5.418936746158272
 31
0.0
  0
LINE
  5
24F
330
1D
100
AcDbEntity
  8
4
100
AcDbLine
 10
38.002604269
 20
25.75100842
 30
0.0
 11
38.002604269
 21
-25.296749559
 31
0.0
  0
ARC
  5
258
102
{ACAD_REACTORS
330
28C
102
}
330
1D
100
AcDbEntity
  8
CUT
100
AcDbCircle
 10
56.09691817599999
 20
16.500284265
 30
0.0
 40
0.400000033
100
AcDbArc
 50
236.9998569490008
 51
356.9999999999993
  0
LINE
  5
259
102
{ACAD_REACTORS
330
28C
102
}
330
1D
100
AcDbEntity
  8
CUT
100
AcDbLine
 10
56.99945181452128
 20
26.07906609315867
 30
0.0
 11
56.4963700228566
 21
16.47934988077573
 31
0.0
  0
ARC
  5
25A
102
{ACAD_REACTORS
330
28C
102
}
330
1D
100
AcDbEntity
  8
CUT
100
AcDbCircle
 10
56.600000452
 20
26.100000452
 30
0.0
 40
0.399999548
100
AcDbArc
 50
356.9999999999991
 51
117.0000438090029
  0
LINE
  5
25B
102
{ACAD_REACTORS
330
28C
102
}
330
1D
100
AcDbEntity
  8
CUT
100
AcDbLine
 10
55.87906170645431
 20
16.16481655406928
 30
0.0
 11
47.81698885879506
 21
21.4003650991314
 31
0.0
  0
LINE
  5
25C
102
{ACAD_REACTORS
330
28C
102
}
330
1D
100
AcDbEntity
  8
CUT
100
AcDbLine
 10
47.85324854378617
 20
22.09223785110655
 30
0.0
 11
56.41840418479877
 21
26.45640252008994
 31
0.0
  0
ARC
  5
25D
102
{ACAD_REACTORS
330
28C
102
}
330
1D
100
AcDbEntity
  8
CUT
100
AcDbCircle
 10
48.03484542199999
 20
21.735834192
 30
0.0
 40
0.400001243
100
AcDbArc
 50
117.0000183279997
 51
236.9999535080009
  0
CIRCLE
  5
25E
102
{ACAD_REACTORS
330
28C
102
}
330
1D
100
AcDbEntity
  8
1
100
AcDbCircle
 10
53.57728011499999
 20
21.445367883
 30
0.0
 40
2.099999964
  0
HATCH
  5
28C
330
1D
100
AcDbEntity
  8
7
100
AcDbHatch
 10
0.0
 20
0.0
 30
0.0
210
0.0
220
0.0
230
1.0
  2
ANSI31
 70
     0
 71
     1
 91
        2
 92
        7
 72
     1
 73
     1
 93
        6
 10
56.49637004897706
 20
16.47935037920175
 42
0.0
 10
56.99945184064171
 20
26.07906659158409
 42
0.5773499359776196
 10
56.4184043688719
 20
26.45640261387988
 42
0.0
 10
47.85324862219174
 20
22.09223789105618
 42
0.5773505873667519
 10
47.81698948473341
 20
21.40036469264405
 42
0.0
 10
55.87906270929486
 20
16.16481590281984
 42
0.5773505209004516
 97
        6
330
259
330
25A
330
25C
330
25D
330
25B
330
258
 92
       22
 72
     1
 73
     1
 93
        2
 10
51.477280151
 20
21.445367883
 42
1.0
 10
55.67728007899999
 20
21.445367883
 42
1.0
 97
        1
330
25E
 75
     0
 76
     1
 52
0.0
 41
1.0
 77
     0
 78
     1
 53
45.0
 43
-14.09772160498953
 44
-39.29799418894443
 45
-0.0883883476483184
 46
0.0883883476483184
 79
     0
 47
0.0
 98
        2
 10
56.59337006330922
 20
24.60141828560496
 10
56.59337006330922
 20
24.60141828560496
1001
ACAD
1010
0.0
1020
0.0
1030
0.0
  0
LINE
  5
2C1
330
1D
100
AcDbEntity
  8
SK1
100
AcDbLine
 10
0.0
 20
-14.000477188
 30
0.0
 11
0.0
 21
13.99957431
 31
0.0
  0
ENDSEC
  0
SECTION
  2
OBJECTS
  0
DICTIONARY
  5
C
330
0
100
AcDbDictionary
281
     1
  3
ACAD_DETAILVIEWSTYLE
350
17A
  3
ACAD_GROUP
350
D
  3
ACAD_LAYOUT
350
1A
  3
ACAD_MLINESTYLE
350
17
  3
ACAD_PLOTSETTINGS
350
19
  3
ACAD_PLOTSTYLENAME
350
E
  3
ACAD_SCALELIST
350
E6
  3
ACAD_SECTIONVIEWSTYLE
350
17B
  3
AcDbVariableDictionary
350
128
  3
APPDATA
350
176
  3
DWGPROPS
350
2C6
  0
DICTIONARY
  5
17C
330
2
100
AcDbDictionary
280
     1
281
     1
  3
ACAD_LAYERSTATES
360
17D
  3
ACLYDICTIONARY
360
265
  0
DICTIONARY
  5
268
330
1D
100
AcDbDictionary
280
     1
281
     1
  3
ACAD_SORTENTS
360
269
  0
DICTIONARY
  5
17A
102
{ACAD_REACTORS
330
C
102
}
330
C
100
AcDbDictionary
281
     1
  0
DICTIONARY
  5
D
102
{ACAD_REACTORS
330
C
102
}
330
C
100
AcDbDictionary
281
     1
  0
DICTIONARY
  5
1A
102
{ACAD_REACTORS
330
C
102
}
330
C
100
AcDbDictionary
281
     1
  3
Layout1
350
1C
  3
Model
350
1E
  0
DICTIONARY
  5
17
102
{ACAD_REACTORS
330
C
102
}
330
C
100
AcDbDictionary
281
     1
  3
Standard
350
18
  0
DICTIONARY
  5
19
102
{ACAD_REACTORS
330
C
102
}
330
C
100
AcDbDictionary
281
     1
  0
ACDBDICTIONARYWDFLT
  5
E
102
{ACAD_REACTORS
330
C
102
}
330
C
100
AcDbDictionary
281
     1
  3
Normal
350
F
100
AcDbDictionaryWithDefault
340
F
  0
DICTIONARY
  5
E6
102
{ACAD_REACTORS
330
C
102
}
330
C
100
AcDbDictionary
281
     1
  3
A0
350
E7
  3
A1
350
E8
  3
A2
350
E9
  3
A3
350
EA
  3
A4
350
EB
  3
A5
350
EC
  3
A6
350
ED
  3
A7
350
EE
  3
A8
350
EF
  3
A9
350
F0
  3
B0
350
F1
  3
B1
350
F2
  3
B2
350
F3
  3
B3
350
F4
  3
B4
350
F5
  3
B5
350
F6
  3
B6
350
F7
  3
B7
350
F8
  3
B8
350
F9
  3
B9
350
FA
  3
C0
350
FB
  3
C1
350
FC
  3
C2
350
FD
  3
C3
350
FE
  3
C4
350
FF
  3
C5
350
100
  3
C6
350
101
  3
C7
350
102
  3
C8
350
103
  3
C9
350
104
  3
D0
350
105
  3
D1
350
106
  3
D2
350
107
  0
DICTIONARY
  5
17B
102
{ACAD_REACTORS
330
C
102
}
330
C
100
AcDbDictionary
281
     1
  0
DICTIONARY
  5
128
102
{ACAD_REACTORS
330
C
102
}
330
C
100
AcDbDictionary
281
     1
  3
DIMASSOC
350
12C
  3
HIDETEXT
350
12D
  0
DICTIONARY
  5
176
102
{ACAD_REACTORS
330
C
102
}
330
C
100
AcDbDictionary
281
     1
  0
XRECORD
  5
2C6
102
{ACAD_REACTORS
330
C
102
}
330
C
100
AcDbXrecord
280
     1
  1
DWGPROPS COOKIE
  2

  3

  4

  6

  7

  8
matthias.ochs
  9

300
=
301
=
302
=
303
=
304
=
305
=
306
=
307
=
308
=
309
=
 40
0.0
 41
2458327.465980521
 42
2458589.505041192
  1

 90
        0
  0
DICTIONARY
  5
17D
102
{ACAD_REACTORS
330
17C
102
}
330
17C
100
AcDbDictionary
281
     1
  0
DICTIONARY
  5
265
102
{ACAD_REACTORS
330
17C
102
}
330
17C
100
AcDbDictionary
281
     1
1001
ACAD
1000
<All
  0
SORTENTSTABLE
  5
269
102
{ACAD_REACTORS
330
268
102
}
330
268
100
AcDbSortentsTable
330
1D
331
0
  5
B0
331
2E
  5
2F
331
2F
  5
30
331
30
  5
31
331
31
  5
32
331
32
  5
33
331
33
  5
34
331
34
  5
35
331
35
  5
36
331
36
  5
37
331
37
  5
38
331
38
  5
39
331
39
  5
3A
331
3A
  5
3B
331
3B
  5
3C
331
3C
  5
3D
331
3D
  5
3E
331
3E
  5
3F
331
3F
  5
40
331
40
  5
41
331
41
  5
42
331
42
  5
43
331
43
  5
44
331
44
  5
45
331
45
  5
46
331
46
  5
47
331
47
  5
48
331
48
  5
49
331
49
  5
4A
331
4A
  5
4B
331
4B
  5
4C
331
4C
  5
4D
331
4D
  5
4E
331
4E
  5
4F
331
4F
  5
50
331
50
  5
51
331
51
  5
52
331
52
  5
53
331
53
  5
54
331
54
  5
55
331
55
  5
56
331
56
  5
57
331
57
  5
58
331
58
  5
59
331
59
  5
5A
331
5A
  5
5B
331
5B
  5
5C
331
5C
  5
5D
331
5D
  5
5E
331
5E
  5
5F
331
5F
  5
60
331
60
  5
61
331
61
  5
62
331
62
  5
63
331
63
  5
64
331
64
  5
65
331
65
  5
66
331
66
  5
67
331
67
  5
68
331
68
  5
69
331
69
  5
6A
331
6A
  5
6B
331
6B
  5
6C
331
6C
  5
6D
331
6D
  5
6E
331
6E
  5
6F
331
6F
  5
70
331
70
  5
71
331
71
  5
72
331
72
  5
73
331
73
  5
74
331
74
  5
75
331
75
  5
76
331
76
  5
77
331
77
  5
78
331
78
  5
79
331
79
  5
7A
331
7A
  5
7B
331
7B
  5
7C
331
7C
  5
7D
331
7D
  5
7E
331
7E
  5
7F
331
7F
  5
80
331
80
  5
81
331
81
  5
82
331
82
  5
83
331
83
  5
84
331
84
  5
85
331
85
  5
86
331
86
  5
87
331
87
  5
88
331
88
  5
89
331
89
  5
8A
331
8A
  5
8B
331
8B
  5
8C
331
8C
  5
8D
331
8D
  5
8E
331
8E
  5
8F
331
8F
  5
90
331
90
  5
91
331
91
  5
92
331
92
  5
93
331
93
  5
94
331
94
  5
95
331
95
  5
97
331
97
  5
98
331
98
  5
99
331
99
  5
9A
331
9A
  5
9B
331
9B
  5
9C
331
9C
  5
9D
331
9D
  5
9E
331
9E
  5
9F
331
9F
  5
A3
331
A0
  5
A4
331
A1
  5
A5
331
A2
  5
A6
331
A3
  5
A7
331
A4
  5
A8
331
A5
  5
A9
331
A6
  5
AA
331
A7
  5
AB
331
A9
  5
B1
331
AA
  5
B2
331
AB
  5
B3
331
AC
  5
B4
331
AD
  5
B5
331
AE
  5
B6
331
AF
  5
B7
331
B0
  5
B8
331
B1
  5
B9
331
B2
  5
BA
331
B3
  5
BB
331
B4
  5
BC
331
B5
  5
BD
331
B6
  5
BE
331
B7
  5
BF
331
B8
  5
C0
331
B9
  5
C1
331
BA
  5
C2
331
BB
  5
C3
331
BC
  5
C4
331
BD
  5
C5
331
BE
  5
C6
331
BF
  5
C7
331
C0
  5
C8
331
C1
  5
C9
331
C2
  5
CA
331
C3
  5
CB
331
C4
  5
CC
331
C5
  5
CD
331
C6
  5
CE
331
C7
  5
CF
331
C8
  5
D0
331
C9
  5
D1
331
CA
  5
D2
331
CB
  5
D3
331
CC
  5
D4
331
CD
  5
D5
331
CE
  5
D6
331
CF
  5
D7
331
D0
  5
D8
331
D1
  5
D9
331
D2
  5
DA
331
D3
  5
DB
331
D4
  5
DC
331
D5
  5
DD
331
D6
  5
DE
331
D7
  5
DF
331
D8
  5
185
331
D9
  5
186
331
DA
  5
187
331
DB
  5
188
331
DC
  5
18F
331
DD
  5
193
331
DE
  5
194
331
DF
  5
195
331
185
  5
196
331
186
  5
197
331
187
  5
198
331
188
  5
199
331
18F
  5
19A
331
193
  5
19B
331
194
  5
19C
331
195
  5
19D
331
196
  5
19E
331
197
  5
19F
331
198
  5
1A0
331
199
  5
1A1
331
19A
  5
1A4
331
19B
  5
1A5
331
19C
  5
1B2
331
19D
  5
1B3
331
19E
  5
1B4
331
19F
  5
1B6
331
1A0
  5
1B8
331
1A1
  5
223
331
1A4
  5
228
331
1A5
  5
22B
331
1B2
  5
22C
331
1B3
  5
23D
331
1B4
  5
23E
331
1B6
  5
23F
331
1B8
  5
244
331
223
  5
245
331
228
  5
246
331
22B
  5
24F
331
22C
  5
258
331
23D
  5
259
331
23E
  5
25A
331
23F
  5
25B
331
244
  5
25C
331
245
  5
25D
331
246
  5
25E
331
24F
  5
267
331
258
  5
26E
331
259
  5
26F
331
25A
  5
270
331
25B
  5
271
331
25C
  5
272
331
25D
  5
273
331
25E
  5
281
331
28C
  5
26D
  0
LAYOUT
  5
1C
102
{ACAD_REACTORS
330
1A
102
}
330
1A
100
AcDbPlotSettings
  1

  2
none_device
  4

  6

 40
0.0
 41
0.0
 42
0.0
 43
0.0
 44
0.0
 45
0.0
 46
0.0
 47
0.0
 48
0.0
 49
0.0
140
0.0
141
0.0
142
1.0
143
1.0
 70
   688
 72
     0
 73
     0
 74
     5
  7

 75
    16
147
1.0
148
0.0
149
0.0
100
AcDbLayout
  1
Layout1
 70
     1
 71
     1
 10
0.0
 20
0.0
 11
12.0
 21
9.0
 12
0.0
 22
0.0
 32
0.0
 14
1.000000000000000E+20
 24
1.000000000000000E+20
 34
1.000000000000000E+20
 15
-1.000000000000000E+20
 25
-1.000000000000000E+20
 35
-1.000000000000000E+20
146
0.0
 13
0.0
 23
0.0
 33
0.0
 16
1.0
 26
0.0
 36
0.0
 17
0.0
 27
1.0
 37
0.0
 76
     0
330
1B
  0
LAYOUT
  5
1E
102
{ACAD_REACTORS
330
1A
102
}
330
1A
100
AcDbPlotSettings
  1

  2
none_device
  4

  6

 40
0.0
 41
0.0
 42
0.0
 43
0.0
 44
0.0
 45
0.0
 46
0.0
 47
0.0
 48
0.0
 49
0.0
140
0.0
141
0.0
142
1.0
143
1.0
 70
  1712
 72
     0
 73
     0
 74
     0
  7

 75
     0
147
1.0
148
0.0
149
0.0
100
AcDbLayout
  1
Model
 70
     1
 71
     0
 10
0.0
 20
0.0
 11
12.0
 21
9.0
 12
0.0
 22
0.0
 32
0.0
 14
-63.26116991651422
 24
-50.8807731033024
 34
0.0
 15
90.3259527840426
 25
48.91284003752984
 35
0.0
146
0.0
 13
0.0
 23
0.0
 33
0.0
 16
1.0
 26
0.0
 36
0.0
 17
0.0
 27
1.0
 37
0.0
 76
     0
330
1D
331
E0
  0
MLINESTYLE
  5
18
102
{ACAD_REACTORS
330
17
102
}
330
17
100
AcDbMlineStyle
  2
Standard
 70
     0
  3

 62
   256
 51
90.0
 52
90.0
 71
     2
 49
0.5
 62
   256
  6
BYLAYER
 49
-0.5
 62
   256
  6
BYLAYER
  0
ACDBPLACEHOLDER
  5
F
102
{ACAD_REACTORS
330
E
102
}
330
E
  0
SCALE
  5
E7
102
{ACAD_REACTORS
330
E6
102
}
330
E6
100
AcDbScale
 70
     0
300
1:1
140
1.0
141
1.0
290
     1
  0
SCALE
  5
E8
102
{ACAD_REACTORS
330
E6
102
}
330
E6
100
AcDbScale
 70
     0
300
1:2
140
1.0
141
2.0
290
     0
  0
SCALE
  5
E9
102
{ACAD_REACTORS
330
E6
102
}
330
E6
100
AcDbScale
 70
     0
300
1:4
140
1.0
141
4.0
290
     0
  0
SCALE
  5
EA
102
{ACAD_REACTORS
330
E6
102
}
330
E6
100
AcDbScale
 70
     0
300
1:5
140
1.0
141
5.0
290
     0
  0
SCALE
  5
EB
102
{ACAD_REACTORS
330
E6
102
}
330
E6
100
AcDbScale
 70
     0
300
1:8
140
1.0
141
8.0
290
     0
  0
SCALE
  5
EC
102
{ACAD_REACTORS
330
E6
102
}
330
E6
100
AcDbScale
 70
     0
300
1:10
140
1.0
141
10.0
290
     0
  0
SCALE
  5
ED
102
{ACAD_REACTORS
330
E6
102
}
330
E6
100
AcDbScale
 70
     0
300
1:16
140
1.0
141
16.0
290
     0
  0
SCALE
  5
EE
102
{ACAD_REACTORS
330
E6
102
}
330
E6
100
AcDbScale
 70
     0
300
1:20
140
1.0
141
20.0
290
     0
  0
SCALE
  5
EF
102
{ACAD_REACTORS
330
E6
102
}
330
E6
100
AcDbScale
 70
     0
300
1:30
140
1.0
141
30.0
290
     0
  0
SCALE
  5
F0
102
{ACAD_REACTORS
330
E6
102
}
330
E6
100
AcDbScale
 70
     0
300
1:40
140
1.0
141
40.0
290
     0
  0
SCALE
  5
F1
102
{ACAD_REACTORS
330
E6
102
}
330
E6
100
AcDbScale
 70
     0
300
1:50
140
1.0
141
50.0
290
     0
  0
SCALE
  5
F2
102
{ACAD_REACTORS
330
E6
102
}
330
E6
100
AcDbScale
 70
     0
300
1:100
140
1.0
141
100.0
290
     0
  0
SCALE
  5
F3
102
{ACAD_REACTORS
330
E6
102
}
330
E6
100
AcDbScale
 70
     0
300
2:1
140
2.0
141
1.0
290
     0
  0
SCALE
  5
F4
102
{ACAD_REACTORS
330
E6
102
}
330
E6
100
AcDbScale
 70
     0
300
4:1
140
4.0
141
1.0
290
     0
  0
SCALE
  5
F5
102
{ACAD_REACTORS
330
E6
102
}
330
E6
100
AcDbScale
 70
     0
300
8:1
140
8.0
141
1.0
290
     0
  0
SCALE
  5
F6
102
{ACAD_REACTORS
330
E6
102
}
330
E6
100
AcDbScale
 70
     0
300
10:1
140
10.0
141
1.0
290
     0
  0
SCALE
  5
F7
102
{ACAD_REACTORS
330
E6
102
}
330
E6
100
AcDbScale
 70
     0
300
100:1
140
100.0
141
1.0
290
     0
  0
SCALE
  5
F8
102
{ACAD_REACTORS
330
E6
102
}
330
E6
100
AcDbScale
 70
     0
300
1/128" = 1'-0"
140
0.0078125
141
12.0
290
     0
  0
SCALE
  5
F9
102
{ACAD_REACTORS
330
E6
102
}
330
E6
100
AcDbScale
 70
     0
300
1/64" = 1'-0"
140
0.015625
141
12.0
290
     0
  0
SCALE
  5
FA
102
{ACAD_REACTORS
330
E6
102
}
330
E6
100
AcDbScale
 70
     0
300
1/32" = 1'-0"
140
0.03125
141
12.0
290
     0
  0
SCALE
  5
FB
102
{ACAD_REACTORS
330
E6
102
}
330
E6
100
AcDbScale
 70
     0
300
1/16" = 1'-0"
140
0.0625
141
12.0
290
     0
  0
SCALE
  5
FC
102
{ACAD_REACTORS
330
E6
102
}
330
E6
100
AcDbScale
 70
     0
300
3/32" = 1'-0"
140
0.09375
141
12.0
290
     0
  0
SCALE
  5
FD
102
{ACAD_REACTORS
330
E6
102
}
330
E6
100
AcDbScale
 70
     0
300
1/8" = 1'-0"
140
0.125
141
12.0
290
     0
  0
SCALE
  5
FE
102
{ACAD_REACTORS
330
E6
102
}
330
E6
100
AcDbScale
 70
     0
300
3/16" = 1'-0"
140
0.1875
141
12.0
290
     0
  0
SCALE
  5
FF
102
{ACAD_REACTORS
330
E6
102
}
330
E6
100
AcDbScale
 70
     0
300
1/4" = 1'-0"
140
0.25
141
12.0
290
     0
  0
SCALE
  5
100
102
{ACAD_REACTORS
330
E6
102
}
330
E6
100
AcDbScale
 70
     0
300
3/8" = 1'-0"
140
0.375
141
12.0
290
     0
  0
SCALE
  5
101
102
{ACAD_REACTORS
330
E6
102
}
330
E6
100
AcDbScale
 70
     0
300
1/2" = 1'-0"
140
0.5
141
12.0
290
     0
  0
SCALE
  5
102
102
{ACAD_REACTORS
330
E6
102
}
330
E6
100
AcDbScale
 70
     0
300
3/4" = 1'-0"
140
0.75
141
12.0
290
     0
  0
SCALE
  5
103
102
{ACAD_REACTORS
330
E6
102
}
330
E6
100
AcDbScale
 70
     0
300
1" = 1'-0"
140
1.0
141
12.0
290
     0
  0
SCALE
  5
104
102
{ACAD_REACTORS
330
E6
102
}
330
E6
100
AcDbScale
 70
     0
300
1-1/2" = 1'-0"
140
1.5
141
12.0
290
     0
  0
SCALE
  5
105
102
{ACAD_REACTORS
330
E6
102
}
330
E6
100
AcDbScale
 70
     0
300
3" = 1'-0"
140
3.0
141
12.0
290
     0
  0
SCALE
  5
106
102
{ACAD_REACTORS
330
E6
102
}
330
E6
100
AcDbScale
 70
     0
300
6" = 1'-0"
140
6.0
141
12.0
290
     0
  0
SCALE
  5
107
102
{ACAD_REACTORS
330
E6
102
}
330
E6
100
AcDbScale
 70
     0
300
1'-0" = 1'-0"
140
12.0
141
12.0
290
     0
  0
DICTIONARYVAR
  5
12C
102
{ACAD_REACTORS
330
128
102
}
330
128
100
DictionaryVariables
280
     0
  1
2
  0
DICTIONARYVAR
  5
12D
102
{ACAD_REACTORS
330
128
102
}
330
128
100
DictionaryVariables
280
     0
  1
1
  0
ENDSEC
  0
EOF
