  0
SECTION
  2
HEADER
  9
$ACADVER
  1
AC1015
  9
$ACADMAINTVER
 70
     6
  9
$DWGCODEPAGE
  3
ANSI_1252
  9
$INSBASE
 10
0.0
 20
0.0
 30
0.0
  9
$EXTMIN
 10
-60.00841104483447
 20
-33.23057531289685
 30
0.0
  9
$EXTMAX
 10
70.64708977132247
 20
41.46446891533451
 30
0.0
  9
$LIMMIN
 10
-41.930000967
 20
-29.001460597
  9
$LIMMAX
 10
52.930000669
 20
30.00146042
  9
$ORTHOMODE
 70
     0
  9
$REGENMODE
 70
     1
  9
$FILLMODE
 70
     1
  9
$QTEXTMODE
 70
     0
  9
$MIRRTEXT
 70
     1
  9
$LTSCALE
 40
1.0
  9
$ATTMODE
 70
     1
  9
$TEXTSIZE
 40
0.2
  9
$TRACEWID
 40
0.05
  9
$TEXTSTYLE
  7
Standard
  9
$CLAYER
  8
1
  9
$CELTYPE
  6
ByLayer
  9
$CECOLOR
 62
   256
  9
$CELTSCALE
 40
1.0
  9
$DISPSILH
 70
     0
  9
$DIMSCALE
 40
1.0
  9
$DIMASZ
 40
0.18
  9
$DIMEXO
 40
0.0625
  9
$DIMDLI
 40
0.38
  9
$DIMRND
 40
0.0
  9
$DIMDLE
 40
0.0
  9
$DIMEXE
 40
0.18
  9
$DIMTP
 40
0.0
  9
$DIMTM
 40
0.0
  9
$DIMTXT
 40
0.18
  9
$DIMCEN
 40
0.09
  9
$DIMTSZ
 40
0.0
  9
$DIMTOL
 70
     0
  9
$DIMLIM
 70
     0
  9
$DIMTIH
 70
     1
  9
$DIMTOH
 70
     1
  9
$DIMSE1
 70
     0
  9
$DIMSE2
 70
     0
  9
$DIMTAD
 70
     0
  9
$DIMZIN
 70
     0
  9
$DIMBLK
  1

  9
$DIMASO
 70
     1
  9
$DIMSHO
 70
     1
  9
$DIMPOST
  1

  9
$DIMAPOST
  1

  9
$DIMALT
 70
     0
  9
$DIMALTD
 70
     2
  9
$DIMALTF
 40
25.4
  9
$DIMLFAC
 40
1.0
  9
$DIMTOFL
 70
     0
  9
$DIMTVP
 40
0.0
  9
$DIMTIX
 70
     0
  9
$DIMSOXD
 70
     0
  9
$DIMSAH
 70
     0
  9
$DIMBLK1
  1

  9
$DIMBLK2
  1

  9
$DIMSTYLE
  2
Standard
  9
$DIMCLRD
 70
     0
  9
$DIMCLRE
 70
     0
  9
$DIMCLRT
 70
     0
  9
$DIMTFAC
 40
1.0
  9
$DIMGAP
 40
0.09
  9
$DIMJUST
 70
     0
  9
$DIMSD1
 70
     0
  9
$DIMSD2
 70
     0
  9
$DIMTOLJ
 70
     1
  9
$DIMTZIN
 70
     0
  9
$DIMALTZ
 70
     0
  9
$DIMALTTZ
 70
     0
  9
$DIMUPT
 70
     0
  9
$DIMDEC
 70
     4
  9
$DIMTDEC
 70
     4
  9
$DIMALTU
 70
     2
  9
$DIMALTTD
 70
     2
  9
$DIMTXSTY
  7
Standard
  9
$DIMAUNIT
 70
     0
  9
$DIMADEC
 70
     0
  9
$DIMALTRND
 40
0.0
  9
$DIMAZIN
 70
     0
  9
$DIMDSEP
 70
    46
  9
$DIMATFIT
 70
     3
  9
$DIMFRAC
 70
     0
  9
$DIMLDRBLK
  1

  9
$DIMLUNIT
 70
     2
  9
$DIMLWD
 70
    -2
  9
$DIMLWE
 70
    -2
  9
$DIMTMOVE
 70
     2
  9
$LUNITS
 70
     2
  9
$LUPREC
 70
     4
  9
$SKETCHINC
 40
0.1
  9
$FILLETRAD
 40
0.5
  9
$AUNITS
 70
     2
  9
$AUPREC
 70
     0
  9
$MENU
  1
.
  9
$ELEVATION
 40
0.0
  9
$PELEVATION
 40
0.0
  9
$THICKNESS
 40
0.0
  9
$LIMCHECK
 70
     0
  9
$CHAMFERA
 40
0.5
  9
$CHAMFERB
 40
0.5
  9
$CHAMFERC
 40
1.0
  9
$CHAMFERD
 40
0.0
  9
$SKPOLY
 70
     0
  9
$TDCREATE
 40
2458327.549313044
  9
$TDUCREATE
 40
2458327.465979711
  9
$TDUPDATE
 40
2458589.587744155
  9
$TDUUPDATE
 40
2458589.504410822
  9
$TDINDWG
 40
0.0095020949
  9
$TDUSRTIMER
 40
0.0001049653
  9
$USRTIMER
 70
     1
  9
$ANGBASE
 50
0.0
  9
$ANGDIR
 70
     0
  9
$PDMODE
 70
     0
  9
$PDSIZE
 40
0.0
  9
$PLINEWID
 40
0.0
  9
$SPLFRAME
 70
     0
  9
$SPLINETYPE
 70
     6
  9
$SPLINESEGS
 70
     8
  9
$HANDSEED
  5
245
  9
$SURFTAB1
 70
     6
  9
$SURFTAB2
 70
     6
  9
$SURFTYPE
 70
     6
  9
$SURFU
 70
     6
  9
$SURFV
 70
     6
  9
$UCSBASE
  2

  9
$UCSNAME
  2

  9
$UCSORG
 10
0.0
 20
0.0
 30
0.0
  9
$UCSXDIR
 10
1.0
 20
0.0
 30
0.0
  9
$UCSYDIR
 10
0.0
 20
1.0
 30
0.0
  9
$UCSORTHOREF
  2

  9
$UCSORTHOVIEW
 70
     0
  9
$UCSORGTOP
 10
0.0
 20
0.0
 30
0.0
  9
$UCSORGBOTTOM
 10
0.0
 20
0.0
 30
0.0
  9
$UCSORGLEFT
 10
0.0
 20
0.0
 30
0.0
  9
$UCSORGRIGHT
 10
0.0
 20
0.0
 30
0.0
  9
$UCSORGFRONT
 10
0.0
 20
0.0
 30
0.0
  9
$UCSORGBACK
 10
0.0
 20
0.0
 30
0.0
  9
$PUCSBASE
  2

  9
$PUCSNAME
  2

  9
$PUCSORG
 10
0.0
 20
0.0
 30
0.0
  9
$PUCSXDIR
 10
1.0
 20
0.0
 30
0.0
  9
$PUCSYDIR
 10
0.0
 20
1.0
 30
0.0
  9
$PUCSORTHOREF
  2

  9
$PUCSORTHOVIEW
 70
     0
  9
$PUCSORGTOP
 10
0.0
 20
0.0
 30
0.0
  9
$PUCSORGBOTTOM
 10
0.0
 20
0.0
 30
0.0
  9
$PUCSORGLEFT
 10
0.0
 20
0.0
 30
0.0
  9
$PUCSORGRIGHT
 10
0.0
 20
0.0
 30
0.0
  9
$PUCSORGFRONT
 10
0.0
 20
0.0
 30
0.0
  9
$PUCSORGBACK
 10
0.0
 20
0.0
 30
0.0
  9
$USERI1
 70
     0
  9
$USERI2
 70
     0
  9
$USERI3
 70
     0
  9
$USERI4
 70
     0
  9
$USERI5
 70
     0
  9
$USERR1
 40
0.0
  9
$USERR2
 40
0.0
  9
$USERR3
 40
0.0
  9
$USERR4
 40
0.0
  9
$USERR5
 40
0.0
  9
$WORLDVIEW
 70
     1
  9
$SHADEDGE
 70
     3
  9
$SHADEDIF
 70
    70
  9
$TILEMODE
 70
     1
  9
$MAXACTVP
 70
    64
  9
$PINSBASE
 10
0.0
 20
0.0
 30
0.0
  9
$PLIMCHECK
 70
     0
  9
$PEXTMIN
 10
1.000000000000000E+20
 20
1.000000000000000E+20
 30
1.000000000000000E+20
  9
$PEXTMAX
 10
-1.000000000000000E+20
 20
-1.000000000000000E+20
 30
-1.000000000000000E+20
  9
$PLIMMIN
 10
0.0
 20
0.0
  9
$PLIMMAX
 10
0.0
 20
0.0
  9
$UNITMODE
 70
     0
  9
$VISRETAIN
 70
     1
  9
$PLINEGEN
 70
     0
  9
$PSLTSCALE
 70
     1
  9
$TREEDEPTH
 70
  3020
  9
$CMLSTYLE
  2
Standard
  9
$CMLJUST
 70
     0
  9
$CMLSCALE
 40
1.0
  9
$PROXYGRAPHICS
 70
     1
  9
$MEASUREMENT
 70
     0
  9
$CELWEIGHT
370
    -1
  9
$ENDCAPS
280
     0
  9
$JOINSTYLE
280
     0
  9
$LWDISPLAY
290
     0
  9
$INSUNITS
 70
     0
  9
$HYPERLINKBASE
  1

  9
$STYLESHEET
  1

  9
$XEDIT
290
     1
  9
$CEPSNTYPE
380
     0
  9
$PSTYLEMODE
290
     1
  9
$FINGERPRINTGUID
  2
{0F88E464-3649-4318-B975-F9A663168BC4}
  9
$VERSIONGUID
  2
{FAEB1C32-E019-11D5-929B-00C0DF256EC4}
  9
$EXTNAMES
290
     1
  9
$PSVPSCALE
 40
0.0
  9
$OLESTARTUP
290
     0
  0
ENDSEC
  0
SECTION
  2
CLASSES
  0
CLASS
  1
ACDBDICTIONARYWDFLT
  2
AcDbDictionaryWithDefault
  3
ObjectDBX Classes
 90
        0
280
     0
281
     0
  0
CLASS
  1
SCALE
  2
AcDbScale
  3
ObjectDBX Classes
 90
     1153
280
     0
281
     0
  0
CLASS
  1
VISUALSTYLE
  2
AcDbVisualStyle
  3
ObjectDBX Classes
 90
     4095
280
     0
281
     0
  0
CLASS
  1
MATERIAL
  2
AcDbMaterial
  3
ObjectDBX Classes
 90
     1153
280
     0
281
     0
  0
CLASS
  1
DICTIONARYVAR
  2
AcDbDictionaryVar
  3
ObjectDBX Classes
 90
        0
280
     0
281
     0
  0
CLASS
  1
ACDBPLACEHOLDER
  2
AcDbPlaceHolder
  3
ObjectDBX Classes
 90
        0
280
     0
281
     0
  0
CLASS
  1
LAYOUT
  2
AcDbLayout
  3
ObjectDBX Classes
 90
        0
280
     0
281
     0
  0
CLASS
  1
TABLESTYLE
  2
AcDbTableStyle
  3
ObjectDBX Classes
 90
     4095
280
     0
281
     0
  0
CLASS
  1
MLEADERSTYLE
  2
AcDbMLeaderStyle
  3
ACDB_MLEADERSTYLE_CLASS
 90
     4095
280
     0
281
     0
  0
CLASS
  1
SUN
  2
AcDbSun
  3
SCENEOE
 90
     1153
280
     0
281
     0
  0
CLASS
  1
SORTENTSTABLE
  2
AcDbSortentsTable
  3
ObjectDBX Classes
 90
        0
280
     0
281
     0
  0
CLASS
  1
CELLSTYLEMAP
  2
AcDbCellStyleMap
  3
ObjectDBX Classes
 90
     1152
280
     0
281
     0
  0
ENDSEC
  0
SECTION
  2
TABLES
  0
TABLE
  2
VPORT
  5
8
330
0
100
AcDbSymbolTable
 70
     1
  0
VPORT
  5
CE
330
8
100
AcDbSymbolTableRecord
100
AcDbViewportTableRecord
  2
*Active
 70
     0
 10
0.0
 20
0.0
 11
1.0
 21
1.0
 12
19.93674522608799
 22
-10.28500926565759
 13
0.0
 23
0.0
 14
0.5
 24
0.5
 15
0.5
 25
0.5
 16
0.0
 26
0.0
 36
1.0
 17
0.0
 27
0.0
 37
0.0
 40
112.4075258418308
 41
1.70021645021645
 42
50.0
 43
0.0
 44
0.0
 50
0.0
 51
0.0
 71
    16
 72
   100
 73
     1
 74
     3
 75
     0
 76
     0
 77
     0
 78
     0
281
     0
 65
     1
110
0.0
120
0.0
130
0.0
111
1.0
121
0.0
131
0.0
112
0.0
122
1.0
132
0.0
 79
     0
146
0.0
  0
ENDTAB
  0
TABLE
  2
LTYPE
  5
5
330
0
100
AcDbSymbolTable
 70
     8
  0
LTYPE
  5
14
330
5
100
AcDbSymbolTableRecord
100
AcDbLinetypeTableRecord
  2
ByBlock
 70
     0
  3

 72
    65
 73
     0
 40
0.0
  0
LTYPE
  5
15
330
5
100
AcDbSymbolTableRecord
100
AcDbLinetypeTableRecord
  2
ByLayer
 70
     0
  3

 72
    65
 73
     0
 40
0.0
  0
LTYPE
  5
16
330
5
100
AcDbSymbolTableRecord
100
AcDbLinetypeTableRecord
  2
Continuous
 70
     0
  3
Solid line
 72
    65
 73
     0
 40
0.0
  0
LTYPE
  5
20
330
5
100
AcDbSymbolTableRecord
100
AcDbLinetypeTableRecord
  2
PUNKT
 70
     0
  3
..............
 72
    65
 73
     2
 40
1.5
 49
0.7
 74
     0
 49
-0.8
 74
     0
  0
LTYPE
  5
21
330
5
100
AcDbSymbolTableRecord
100
AcDbLinetypeTableRecord
  2
GESTRICHELT
 70
     0
  3
-- -- -- -- --
 72
    65
 73
     7
 40
2.8
 49
0.9
 74
     0
 49
0.0
 74
     0
 49
0.9
 74
     0
 49
0.0
 74
     0
 49
0.2
 74
     0
 49
0.0
 74
     0
 49
-0.8
 74
     0
  0
LTYPE
  5
22
330
5
100
AcDbSymbolTableRecord
100
AcDbLinetypeTableRecord
  2
STRICHPUNKT
 70
     0
  3
--.--.--.--.--
 72
    65
 73
     4
 40
8.8
 49
5.5
 74
     0
 49
-1.3
 74
     0
 49
0.7
 74
     0
 49
-1.3
 74
     0
  0
LTYPE
  5
25
330
5
100
AcDbSymbolTableRecord
100
AcDbLinetypeTableRecord
  2
PHANTOM
 70
     0
  3
--..--..--..--
 72
    65
 73
     6
 40
14.2
 49
7.0
 74
     0
 49
-1.8
 74
     0
 49
0.9
 74
     0
 49
-1.8
 74
     0
 49
0.9
 74
     0
 49
-1.8
 74
     0
  0
LTYPE
  5
146
330
5
100
AcDbSymbolTableRecord
100
AcDbLinetypeTableRecord
  2
DASH
 70
     0
  3
DASH _ _ _ _ _
 72
    65
 73
     2
 40
0.75
 49
0.4
 74
     0
 49
-0.35
 74
     0
  0
LTYPE
  5
147
330
5
100
AcDbSymbolTableRecord
100
AcDbLinetypeTableRecord
  2
LONGDASH_DASH
 70
     0
  3
LONGDASH_DASH __ . __ . __
 72
    65
 73
     4
 40
0.85
 49
0.4
 74
     0
 49
-0.2
 74
     0
 49
0.05
 74
     0
 49
-0.2
 74
     0
  0
LTYPE
  5
148
330
5
100
AcDbSymbolTableRecord
100
AcDbLinetypeTableRecord
  2
LONGDASH_DASH_DASH
 70
     0
  3
LONGDASH_DASH_DASH __ . . __ . . __
 72
    65
 73
     6
 40
1.1
 49
0.4
 74
     0
 49
-0.2
 74
     0
 49
0.05
 74
     0
 49
-0.2
 74
     0
 49
0.05
 74
     0
 49
-0.2
 74
     0
  0
ENDTAB
  0
TABLE
  2
LAYER
  5
2
102
{ACAD_XDICTIONARY
360
16A
102
}
330
0
100
AcDbSymbolTable
 70
    16
  0
LAYER
  5
110
330
2
100
AcDbSymbolTableRecord
100
AcDbLayerTableRecord
  2
200
 70
     0
 62
     2
  6
Continuous
370
    50
390
F
  0
LAYER
  5
149
330
2
100
AcDbSymbolTableRecord
100
AcDbLayerTableRecord
  2
0
 70
     0
 62
     1
  6
Continuous
370
    -3
390
F
  0
LAYER
  5
14A
330
2
100
AcDbSymbolTableRecord
100
AcDbLayerTableRecord
  2
1
 70
     0
 62
     4
  6
Continuous
370
    50
390
F
  0
LAYER
  5
14B
330
2
100
AcDbSymbolTableRecord
100
AcDbLayerTableRecord
  2
2
 70
     0
 62
     7
  6
Continuous
370
    25
390
F
  0
LAYER
  5
14C
330
2
100
AcDbSymbolTableRecord
100
AcDbLayerTableRecord
  2
3
 70
     0
 62
     1
  6
DASH
370
    35
390
F
  0
LAYER
  5
14D
330
2
100
AcDbSymbolTableRecord
100
AcDbLayerTableRecord
  2
4
 70
     0
 62
     2
  6
LONGDASH_DASH
370
    25
390
F
  0
LAYER
  5
14E
330
2
100
AcDbSymbolTableRecord
100
AcDbLayerTableRecord
  2
6
 70
     0
 62
     5
  6
Continuous
370
    -3
390
F
  0
LAYER
  5
14F
330
2
100
AcDbSymbolTableRecord
100
AcDbLayerTableRecord
  2
CUT
 70
     0
 62
     1
  6
Continuous
370
    25
390
F
  0
LAYER
  5
150
330
2
100
AcDbSymbolTableRecord
100
AcDbLayerTableRecord
  2
NOCUT
 70
     0
 62
     7
  6
Continuous
370
    25
390
F
  0
LAYER
  5
151
330
2
100
AcDbSymbolTableRecord
100
AcDbLayerTableRecord
  2
SK1
 70
     0
 62
     4
  6
Continuous
370
    50
390
F
  0
LAYER
  5
152
330
2
100
AcDbSymbolTableRecord
100
AcDbLayerTableRecord
  2
SK2
 70
     0
 62
     7
  6
Continuous
370
    25
390
F
  0
LAYER
  5
153
330
2
100
AcDbSymbolTableRecord
100
AcDbLayerTableRecord
  2
SK3
 70
     0
 62
     1
  6
DASH
370
    35
390
F
  0
LAYER
  5
154
330
2
100
AcDbSymbolTableRecord
100
AcDbLayerTableRecord
  2
SK4
 70
     0
 62
     2
  6
LONGDASH_DASH
370
    25
390
F
  0
LAYER
  5
155
330
2
100
AcDbSymbolTableRecord
100
AcDbLayerTableRecord
  2
SK6
 70
     0
 62
     5
  6
Continuous
370
    -3
390
F
  0
LAYER
  5
156
330
2
100
AcDbSymbolTableRecord
100
AcDbLayerTableRecord
  2
INFTOTAL
 70
     0
 62
     9
  6
Continuous
370
    18
390
F
  0
LAYER
  5
217
330
2
100
AcDbSymbolTableRecord
100
AcDbLayerTableRecord
  2
7
 70
     0
 62
     5
  6
Continuous
370
    -3
390
F
1001
AcAecLayerStandard
1000

1000

  0
ENDTAB
  0
TABLE
  2
STYLE
  5
3
330
0
100
AcDbSymbolTable
 70
     2
  0
STYLE
  5
11
330
3
100
AcDbSymbolTableRecord
100
AcDbTextStyleTableRecord
  2
Standard
 70
     0
 40
0.0
 41
1.0
 50
0.0
 71
     0
 42
0.2
  3
txt
  4

  0
STYLE
  5
10F
330
3
100
AcDbSymbolTableRecord
100
AcDbTextStyleTableRecord
  2
BMG_Text
 70
     0
 40
3.5
 41
1.0
 50
0.0
 71
     0
 42
0.2
  3
monos.ttf
  4

1001
ACAD
1000
Monospac821 BT
1071
       49
  0
ENDTAB
  0
TABLE
  2
VIEW
  5
6
330
0
100
AcDbSymbolTable
 70
     0
  0
ENDTAB
  0
TABLE
  2
UCS
  5
7
330
0
100
AcDbSymbolTable
 70
     0
  0
ENDTAB
  0
TABLE
  2
APPID
  5
9
330
0
100
AcDbSymbolTable
 70
     2
  0
APPID
  5
12
330
9
100
AcDbSymbolTableRecord
100
AcDbRegAppTableRecord
  2
ACAD
 70
     0
  0
APPID
  5
218
330
9
100
AcDbSymbolTableRecord
100
AcDbRegAppTableRecord
  2
AcAecLayerStandard
 70
     0
  0
ENDTAB
  0
TABLE
  2
DIMSTYLE
  5
A
330
0
100
AcDbSymbolTable
 70
     1
100
AcDbDimStyleTable
  0
DIMSTYLE
105
28
330
A
100
AcDbSymbolTableRecord
100
AcDbDimStyleTableRecord
  2
Standard
 70
     0
178
     0
340
11
  0
ENDTAB
  0
TABLE
  2
BLOCK_RECORD
  5
1
330
0
100
AcDbSymbolTable
 70
     0
  0
BLOCK_RECORD
  5
1D
102
{ACAD_XDICTIONARY
360
21C
102
}
330
1
100
AcDbSymbolTableRecord
100
AcDbBlockTableRecord
  2
*Model_Space
340
1E
  0
BLOCK_RECORD
  5
1B
330
1
100
AcDbSymbolTableRecord
100
AcDbBlockTableRecord
  2
*Paper_Space
340
1C
  0
ENDTAB
  0
ENDSEC
  0
SECTION
  2
BLOCKS
  0
BLOCK
  5
F8
330
1D
100
AcDbEntity
  8
0
100
AcDbBlockBegin
  2
*Model_Space
 70
     0
 10
0.0
 20
0.0
 30
0.0
  3
*Model_Space
  1

  0
ENDBLK
  5
F9
330
1D
100
AcDbEntity
  8
0
100
AcDbBlockEnd
  0
BLOCK
  5
F6
330
1B
100
AcDbEntity
 67
     1
  8
0
100
AcDbBlockBegin
  2
*Paper_Space
 70
     0
 10
0.0
 20
0.0
 30
0.0
  3
*Paper_Space
  1

  0
ENDBLK
  5
F7
330
1B
100
AcDbEntity
 67
     1
  8
0
100
AcDbBlockEnd
  0
ENDSEC
  0
SECTION
  2
ENTITIES
  0
LINE
  5
29
330
1D
100
AcDbEntity
  8
1
100
AcDbLine
 10
22.00055788
 20
3.502760112
 30
0.0
 11
21.716039052
 21
4.834977685
 31
0.0
  0
LINE
  5
2A
330
1D
100
AcDbEntity
  8
1
100
AcDbLine
 10
21.716039052
 20
4.834977685
 30
0.0
 11
20.950627615
 21
5.940695955
 31
0.0
  0
LINE
  5
2B
330
1D
100
AcDbEntity
  8
1
100
AcDbLine
 10
20.950627615
 20
5.940695955
 30
0.0
 11
19.844909344
 21
6.706107392
 31
0.0
  0
LINE
  5
2C
330
1D
100
AcDbEntity
  8
1
100
AcDbLine
 10
19.844909344
 20
6.706107392
 30
0.0
 11
18.512691771
 21
6.98951046
 31
0.0
  0
LINE
  5
2D
330
1D
100
AcDbEntity
  8
1
100
AcDbLine
 10
18.512691771
 20
6.98951046
 30
0.0
 11
17.151464435
 21
6.706107392
 31
0.0
  0
LINE
  5
2E
330
1D
100
AcDbEntity
  8
1
100
AcDbLine
 10
17.151464435
 20
6.706107392
 30
0.0
 11
16.045746165
 21
5.940695955
 31
0.0
  0
LINE
  5
2F
330
1D
100
AcDbEntity
  8
1
100
AcDbLine
 10
16.045746165
 20
5.940695955
 30
0.0
 11
15.280334728
 21
4.834977685
 31
0.0
  0
LINE
  5
30
330
1D
100
AcDbEntity
  8
1
100
AcDbLine
 10
15.280334728
 20
4.834977685
 30
0.0
 11
15.025941423
 21
3.502760112
 31
0.0
  0
LINE
  5
31
330
1D
100
AcDbEntity
  8
1
100
AcDbLine
 10
15.025941423
 20
3.502760112
 30
0.0
 11
15.280334728
 21
2.141532775
 31
0.0
  0
LINE
  5
32
330
1D
100
AcDbEntity
  8
1
100
AcDbLine
 10
15.280334728
 20
2.141532775
 30
0.0
 11
16.045746165
 21
1.035814505
 31
0.0
  0
LINE
  5
33
330
1D
100
AcDbEntity
  8
1
100
AcDbLine
 10
16.045746165
 20
1.035814505
 30
0.0
 11
17.151464435
 21
0.270403068
 31
0.0
  0
LINE
  5
34
330
1D
100
AcDbEntity
  8
1
100
AcDbLine
 10
17.151464435
 20
0.270403068
 30
0.0
 11
18.512691771
 21
0.016009763
 31
0.0
  0
LINE
  5
35
330
1D
100
AcDbEntity
  8
1
100
AcDbLine
 10
18.512691771
 20
0.016009763
 30
0.0
 11
19.844909344
 21
0.270403068
 31
0.0
  0
LINE
  5
36
330
1D
100
AcDbEntity
  8
1
100
AcDbLine
 10
19.844909344
 20
0.270403068
 30
0.0
 11
20.950627615
 21
1.035814505
 31
0.0
  0
LINE
  5
37
330
1D
100
AcDbEntity
  8
1
100
AcDbLine
 10
20.950627615
 20
1.035814505
 30
0.0
 11
21.716039052
 21
2.141532775
 31
0.0
  0
LINE
  5
38
330
1D
100
AcDbEntity
  8
1
100
AcDbLine
 10
21.716039052
 20
2.141532775
 30
0.0
 11
22.00055788
 21
3.502760112
 31
0.0
  0
LINE
  5
39
330
1D
100
AcDbEntity
  8
SK4
100
AcDbLine
 10
18.512691771
 20
9.003457462
 30
0.0
 11
18.512691771
 21
-1.997937238
 31
0.0
  0
LINE
  5
3A
330
1D
100
AcDbEntity
  8
SK4
100
AcDbLine
 10
24.013389121
 20
3.502760112
 30
0.0
 11
13.013110181
 21
3.502760112
 31
0.0
  0
LINE
  5
3B
330
1D
100
AcDbEntity
  8
1
100
AcDbLine
 10
0.0
 20
13.511128312
 30
0.0
 11
0.0
 21
-13.50811855
 31
0.0
  0
LINE
  5
3C
330
1D
100
AcDbEntity
  8
SK1
100
AcDbLine
 10
-15.734449093
 20
-9.000447699
 30
0.0
 11
0.0
 21
-9.000447699
 31
0.0
  0
LINE
  5
3D
330
1D
100
AcDbEntity
  8
SK1
100
AcDbLine
 10
-15.734449093
 20
-9.000447699
 30
0.0
 11
-17.605578801
 21
-8.660140865
 31
0.0
  0
LINE
  5
3E
330
1D
100
AcDbEntity
  8
SK1
100
AcDbLine
 10
-19.419804742
 20
-9.000447699
 30
0.0
 11
-17.605578801
 21
-8.660140865
 31
0.0
  0
LINE
  5
3F
330
1D
100
AcDbEntity
  8
SK1
100
AcDbLine
 10
-19.987726639
 20
-8.489429568
 30
0.0
 11
-19.846025105
 21
-8.858746165
 31
0.0
  0
LINE
  5
40
330
1D
100
AcDbEntity
  8
SK1
100
AcDbLine
 10
-19.846025105
 20
-8.858746165
 30
0.0
 11
-19.476708508
 21
-8.971437936
 31
0.0
  0
LINE
  5
41
330
1D
100
AcDbEntity
  8
SK1
100
AcDbLine
 10
-19.476708508
 20
-8.971437936
 30
0.0
 11
-19.391910739
 21
-8.971437936
 31
0.0
  0
LINE
  5
42
330
1D
100
AcDbEntity
  8
SK1
100
AcDbLine
 10
-19.987726639
 20
8.492439331
 30
0.0
 11
-19.987726639
 21
-8.489429568
 31
0.0
  0
LINE
  5
43
330
1D
100
AcDbEntity
  8
SK1
100
AcDbLine
 10
-19.419804742
 20
8.974447699
 30
0.0
 11
-19.476708508
 21
9.003457462
 31
0.0
  0
LINE
  5
44
330
1D
100
AcDbEntity
  8
SK1
100
AcDbLine
 10
-19.476708508
 20
9.003457462
 30
0.0
 11
-19.846025105
 21
8.832746165
 31
0.0
  0
LINE
  5
45
330
1D
100
AcDbEntity
  8
SK1
100
AcDbLine
 10
-19.846025105
 20
8.832746165
 30
0.0
 11
-19.987726639
 21
8.492439331
 31
0.0
  0
LINE
  5
46
330
1D
100
AcDbEntity
  8
SK1
100
AcDbLine
 10
-19.419804742
 20
9.003457462
 30
0.0
 11
-17.605578801
 21
8.663150628
 31
0.0
  0
LINE
  5
47
330
1D
100
AcDbEntity
  8
SK1
100
AcDbLine
 10
-15.734449093
 20
9.003457462
 30
0.0
 11
-17.605578801
 21
8.663150628
 31
0.0
  0
LINE
  5
48
330
1D
100
AcDbEntity
  8
SK1
100
AcDbLine
 10
-15.734449093
 20
9.003457462
 30
0.0
 11
0.0
 21
9.003457462
 31
0.0
  0
LINE
  5
59
330
1D
100
AcDbEntity
  8
SK1
100
AcDbLine
 10
-15.734449093
 20
9.003457462
 30
0.0
 11
-15.734449093
 21
-9.000447699
 31
0.0
  0
LINE
  5
5A
330
1D
100
AcDbEntity
  8
1
100
AcDbLine
 10
17.123570432
 20
-15.01104742
 30
0.0
 11
16.811157601
 21
-15.01104742
 31
0.0
  0
LINE
  5
5B
330
1D
100
AcDbEntity
  8
1
100
AcDbLine
 10
18.512691771
 20
-12.601005579
 30
0.0
 11
17.123570432
 21
-15.01104742
 31
0.0
  0
LINE
  5
5C
330
1D
100
AcDbEntity
  8
1
100
AcDbLine
 10
0.312412831
 20
-13.791521618
 30
0.0
 11
0.0
 21
-13.50811855
 31
0.0
  0
LINE
  5
5D
330
1D
100
AcDbEntity
  8
1
100
AcDbLine
 10
0.0
 20
13.511128312
 30
0.0
 11
0.312412831
 21
13.794531381
 31
0.0
  0
LINE
  5
5E
330
1D
100
AcDbEntity
  8
1
100
AcDbLine
 10
18.711297071
 20
13.511128312
 30
0.0
 11
18.314086471
 21
15.012941423
 31
0.0
  0
LINE
  5
5F
330
1D
100
AcDbEntity
  8
1
100
AcDbLine
 10
16.811157601
 20
15.012941423
 30
0.0
 11
18.314086471
 21
15.012941423
 31
0.0
  0
LINE
  5
60
330
1D
100
AcDbEntity
  8
SK4
100
AcDbLine
 10
-7.740027894
 20
-4.237267782
 30
0.0
 11
-7.740027894
 21
4.240277545
 31
0.0
  0
LINE
  5
61
330
1D
100
AcDbEntity
  8
SK4
100
AcDbLine
 10
27.018131102
 20
-16.11676569
 30
0.0
 11
27.018131102
 21
16.118659693
 31
0.0
  0
LINE
  5
62
330
1D
100
AcDbEntity
  8
1
100
AcDbLine
 10
36.657182706
 20
-12.601005579
 30
0.0
 11
18.512691771
 21
-12.601005579
 31
0.0
  0
LINE
  5
63
330
1D
100
AcDbEntity
  8
1
100
AcDbLine
 10
36.99748954
 20
8.606246862
 30
0.0
 11
18.711297071
 21
13.511128312
 31
0.0
  0
LINE
  5
64
330
1D
100
AcDbEntity
  8
1
100
AcDbLine
 10
17.605578801
 20
1.915033473
 30
0.0
 11
19.419804742
 21
1.915033473
 31
0.0
  0
LINE
  5
65
330
1D
100
AcDbEntity
  8
1
100
AcDbLine
 10
16.69846583
 20
3.502760112
 30
0.0
 11
17.605578801
 21
1.915033473
 31
0.0
  0
LINE
  5
66
330
1D
100
AcDbEntity
  8
1
100
AcDbLine
 10
17.605578801
 20
5.062592748
 30
0.0
 11
16.69846583
 21
3.502760112
 31
0.0
  0
LINE
  5
67
330
1D
100
AcDbEntity
  8
1
100
AcDbLine
 10
19.419804742
 20
5.062592748
 30
0.0
 11
17.605578801
 21
5.062592748
 31
0.0
  0
LINE
  5
68
330
1D
100
AcDbEntity
  8
1
100
AcDbLine
 10
20.326917713
 20
3.502760112
 30
0.0
 11
19.419804742
 21
5.062592748
 31
0.0
  0
LINE
  5
69
330
1D
100
AcDbEntity
  8
1
100
AcDbLine
 10
19.419804742
 20
1.915033473
 30
0.0
 11
20.326917713
 21
3.502760112
 31
0.0
  0
LINE
  5
6A
330
1D
100
AcDbEntity
  8
SK4
100
AcDbLine
 10
-22.00055788
 20
-0.013
 30
0.0
 11
39.011436541
 21
-0.013
 31
0.0
  0
LINE
  5
6B
330
1D
100
AcDbEntity
  8
1
100
AcDbLine
 10
16.811157601
 20
15.012941423
 30
0.0
 11
16.811157601
 21
6.564405858
 31
0.0
  0
LINE
  5
6C
330
1D
100
AcDbEntity
  8
1
100
AcDbLine
 10
16.811157601
 20
0.441114365
 30
0.0
 11
16.811157601
 21
-15.01104742
 31
0.0
  0
LINE
  5
6D
330
1D
100
AcDbEntity
  8
1
100
AcDbLine
 10
36.99748954
 20
-12.005189679
 30
0.0
 11
36.99748954
 21
8.606246862
 31
0.0
  0
LINE
  5
6E
330
1D
100
AcDbEntity
  8
1
100
AcDbLine
 10
36.99748954
 20
-12.005189679
 30
0.0
 11
36.657182706
 21
-12.601005579
 31
0.0
  0
LINE
  5
6F
330
1D
100
AcDbEntity
  8
1
100
AcDbLine
 10
19.051603905
 20
-12.601005579
 30
0.0
 11
24.749790795
 21
-14.131828452
 31
0.0
  0
LINE
  5
70
330
1D
100
AcDbEntity
  8
1
100
AcDbLine
 10
34.956764296
 20
-12.601005579
 30
0.0
 11
29.257461646
 21
-14.131828452
 31
0.0
  0
LINE
  5
71
330
1D
100
AcDbEntity
  8
1
100
AcDbLine
 10
24.749790795
 20
-14.131828452
 30
0.0
 11
29.257461646
 21
-14.131828452
 31
0.0
  0
LINE
  5
72
330
1D
100
AcDbEntity
  8
1
100
AcDbLine
 10
16.811157601
 20
15.012941423
 30
0.0
 11
0.794421199
 21
15.012941423
 31
0.0
  0
LINE
  5
73
330
1D
100
AcDbEntity
  8
1
100
AcDbLine
 10
0.312412831
 20
-14.500029289
 30
0.0
 11
0.312412831
 21
14.503039052
 31
0.0
  0
LINE
  5
74
330
1D
100
AcDbEntity
  8
1
100
AcDbLine
 10
0.794421199
 20
-15.01104742
 30
0.0
 11
0.312412831
 21
-14.500029289
 31
0.0
  0
LINE
  5
75
330
1D
100
AcDbEntity
  8
1
100
AcDbLine
 10
0.312412831
 20
14.503039052
 30
0.0
 11
0.794421199
 21
15.012941423
 31
0.0
  0
LINE
  5
76
330
1D
100
AcDbEntity
  8
1
100
AcDbLine
 10
16.811157601
 20
-15.01104742
 30
0.0
 11
0.794421199
 21
-15.01104742
 31
0.0
  0
LINE
  5
77
330
1D
100
AcDbEntity
  8
SK3
100
AcDbLine
 10
-0.991910739
 20
-4.492776848
 30
0.0
 11
-19.987726639
 21
-4.492776848
 31
0.0
  0
LINE
  5
78
330
1D
100
AcDbEntity
  8
SK3
100
AcDbLine
 10
-0.991910739
 20
4.494670851
 30
0.0
 11
-19.987726639
 21
4.494670851
 31
0.0
  0
LINE
  5
79
330
1D
100
AcDbEntity
  8
SK3
100
AcDbLine
 10
-0.991910739
 20
4.494670851
 30
0.0
 11
-0.991910739
 21
-4.492776848
 31
0.0
  0
LINE
  5
7A
330
1D
100
AcDbEntity
  8
3
100
AcDbLine
 10
0.0
 20
-2.789388645733833
 30
0.0
 11
1.616736402
 21
-0.013
 31
0.0
  0
LINE
  5
7B
330
1D
100
AcDbEntity
  8
3
100
AcDbLine
 10
0.0
 20
2.780676246398103
 30
0.0
 11
1.616736402
 21
-0.013
 31
0.0
  0
LINE
  5
7C
330
1D
100
AcDbEntity
  8
3
100
AcDbLine
 10
0.538912134
 20
1.858129707
 30
0.0
 11
26.224825662
 21
11.498297071
 31
0.0
  0
LINE
  5
7D
330
1D
100
AcDbEntity
  8
3
100
AcDbLine
 10
0.0
 20
4.86668717282468
 30
0.0
 11
21.234030683
 21
12.830514644
 31
0.0
  0
LINE
  5
7E
330
1D
100
AcDbEntity
  8
3
100
AcDbLine
 10
21.007531381
 20
-12.601005579
 30
0.0
 11
21.007531381
 21
12.88741841
 31
0.0
  0
LINE
  5
7F
330
1D
100
AcDbEntity
  8
3
100
AcDbLine
 10
33.00083682
 20
9.68295537
 30
0.0
 11
33.00083682
 21
-12.601005579
 31
0.0
  0
LINE
  5
80
330
1D
100
AcDbEntity
  8
SK4
100
AcDbLine
 10
-2.09762901
 20
2.481839609
 30
0.0
 11
25.60111576
 21
12.858408647
 31
0.0
  0
ARC
  5
81
330
1D
100
AcDbEntity
  8
1
100
AcDbCircle
 10
27.000415793
 20
34.443504813
 30
0.0
 40
20.84391032
100
AcDbArc
 50
258.936157227
 51
281.063842475
  0
LINE
  5
82
330
1D
100
AcDbEntity
  8
1
100
AcDbLine
 10
38.680244437
 20
15.504089835
 30
0.0
 11
32.777286521
 21
15.504089835
 31
0.0
  0
ARC
  5
83
330
1D
100
AcDbEntity
  8
1
100
AcDbCircle
 10
35.18177413
 20
9.486999991
 30
0.0
 40
0.5
100
AcDbArc
 50
295.470818244
 51
55.423396826
  0
ARC
  5
84
330
1D
100
AcDbEntity
  8
1
100
AcDbCircle
 10
31.250408164
 20
12.486999991
 30
0.0
 40
1.500000079
100
AcDbArc
 50
38.569202721
 51
90.0
  0
LINE
  5
85
330
1D
100
AcDbEntity
  8
1
100
AcDbLine
 10
31.260227194
 20
13.986999991
 30
0.0
 11
32.776279441
 21
15.503082755
 31
0.0
  0
LINE
  5
86
330
1D
100
AcDbEntity
  8
1
100
AcDbLine
 10
23.000408164
 20
13.986999991
 30
0.0
 11
22.750431052
 21
13.986999991
 31
0.0
  0
ARC
  5
87
330
1D
100
AcDbEntity
  8
1
100
AcDbCircle
 10
22.750431052
 20
12.486999991
 30
0.0
 40
1.500000079
100
AcDbArc
 50
90.0
 51
167.172733885
  0
LINE
  5
88
330
1D
100
AcDbEntity
  8
1
100
AcDbLine
 10
31.000415793
 20
13.986999991
 30
0.0
 11
31.250408164
 21
13.986999991
 31
0.0
  0
LINE
  5
89
330
1D
100
AcDbEntity
  8
1
100
AcDbLine
 10
35.577980205
 20
8.986999991
 30
0.0
 11
39.335407248
 21
8.986999991
 31
0.0
  0
ARC
  5
8A
330
1D
100
AcDbEntity
  8
1
100
AcDbCircle
 10
40.700641623
 20
17.494080069
 30
0.0
 40
9.224774994
100
AcDbArc
 50
206.193718314
 51
235.423504114
  0
ARC
  5
8B
330
1D
100
AcDbEntity
  8
1
100
AcDbCircle
 10
34.570209494
 20
12.833847525
 30
0.0
 40
1.100000017
100
AcDbArc
 50
87.0
 51
266.9999999999999
  0
LINE
  5
92
330
1D
100
AcDbEntity
  8
1
100
AcDbLine
 10
34.512638083
 20
11.735359671
 30
0.0
 11
35.390110007
 21
11.689369681
 31
0.0
  0
LINE
  5
93
330
1D
100
AcDbEntity
  8
1
100
AcDbLine
 10
34.627780905
 20
13.932343009
 30
0.0
 11
35.505260459
 21
13.886353018
 31
0.0
  0
LINE
  5
94
330
1D
100
AcDbEntity
  8
1
100
AcDbLine
 10
39.34231145348853
 20
9.118677168007757
 30
0.0
 11
39.335411063
 21
8.986999991
 31
0.0
  0
CIRCLE
  5
95
102
{ACAD_REACTORS
330
221
102
}
330
1D
100
AcDbEntity
  8
1
100
AcDbCircle
 10
37.745784751
 20
12.66733599
 30
0.0
 40
1.200000074
  0
LINE
  5
96
330
1D
100
AcDbEntity
  8
2
100
AcDbLine
 10
-38.000000951
 20
-15.01104742
 30
0.0
 11
0.794421199
 21
-15.01104742
 31
0.0
  0
LINE
  5
97
330
1D
100
AcDbEntity
  8
2
100
AcDbLine
 10
-36.000000951
 20
-15.01104742
 30
0.0
 11
-36.450000951
 21
-11.51104742
 31
0.0
  0
LINE
  5
98
330
1D
100
AcDbEntity
  8
2
100
AcDbLine
 10
-36.450000951
 20
-11.51104742
 30
0.0
 11
-35.550000951
 21
-11.51104742
 31
0.0
  0
LINE
  5
99
330
1D
100
AcDbEntity
  8
2
100
AcDbLine
 10
-35.550000951
 20
-11.51104742
 30
0.0
 11
-36.000000951
 21
-15.01104742
 31
0.0
  0
LINE
  5
9A
330
1D
100
AcDbEntity
  8
2
100
AcDbLine
 10
-38.000000951
 20
15.012941423
 30
0.0
 11
0.794421199
 21
15.012941423
 31
0.0
  0
LINE
  5
9B
330
1D
100
AcDbEntity
  8
2
100
AcDbLine
 10
-36.000000951
 20
15.012941423
 30
0.0
 11
-35.550000951
 21
11.512941423
 31
0.0
  0
LINE
  5
9C
330
1D
100
AcDbEntity
  8
2
100
AcDbLine
 10
-35.550000951
 20
11.512941423
 30
0.0
 11
-36.450000951
 21
11.512941423
 31
0.0
  0
LINE
  5
9D
330
1D
100
AcDbEntity
  8
2
100
AcDbLine
 10
-36.450000951
 20
11.512941423
 30
0.0
 11
-36.000000951
 21
15.012941423
 31
0.0
  0
LINE
  5
9E
330
1D
100
AcDbEntity
  8
2
100
AcDbLine
 10
-36.000000951
 20
-11.51104742
 30
0.0
 11
-36.000000951
 21
11.512941423
 31
0.0
  0
TEXT
  5
9F
330
1D
100
AcDbEntity
  8
2
100
AcDbText
 10
-37.500000951
 20
0.277665416
 30
0.0
 40
3.5
  1
30
 50
90.0
  7
BMG_Text
100
AcDbText
  0
CIRCLE
  5
A0
330
1D
100
AcDbEntity
  8
2
100
AcDbCircle
 10
-38.750000951
 20
-1.972334584
 30
0.0
 40
1.25
  0
LINE
  5
A1
330
1D
100
AcDbEntity
  8
2
100
AcDbLine
 10
-37.500000951
 20
-3.222334584
 30
0.0
 11
-40.000000951
 21
-0.722334584
 31
0.0
  0
LINE
  5
A2
330
1D
100
AcDbEntity
  8
SK2
100
AcDbLine
 10
-29.999999706
 20
-9.000447699
 30
0.0
 11
-15.734449093
 21
-9.000447699
 31
0.0
  0
LINE
  5
A3
330
1D
100
AcDbEntity
  8
SK2
100
AcDbLine
 10
-27.999999706
 20
-9.000447699
 30
0.0
 11
-28.449999706
 21
-5.500447699
 31
0.0
  0
LINE
  5
A4
330
1D
100
AcDbEntity
  8
SK2
100
AcDbLine
 10
-28.449999706
 20
-5.500447699
 30
0.0
 11
-27.549999706
 21
-5.500447699
 31
0.0
  0
LINE
  5
A5
330
1D
100
AcDbEntity
  8
SK2
100
AcDbLine
 10
-27.549999706
 20
-5.500447699
 30
0.0
 11
-27.999999706
 21
-9.000447699
 31
0.0
  0
LINE
  5
A6
330
1D
100
AcDbEntity
  8
SK2
100
AcDbLine
 10
-29.999999706
 20
9.003457462
 30
0.0
 11
-15.734449093
 21
9.003457462
 31
0.0
  0
LINE
  5
A7
330
1D
100
AcDbEntity
  8
SK2
100
AcDbLine
 10
-27.999999706
 20
9.003457462
 30
0.0
 11
-27.549999706
 21
5.503457462
 31
0.0
  0
LINE
  5
A8
330
1D
100
AcDbEntity
  8
SK2
100
AcDbLine
 10
-27.549999706
 20
5.503457462
 30
0.0
 11
-28.449999706
 21
5.503457462
 31
0.0
  0
LINE
  5
A9
330
1D
100
AcDbEntity
  8
SK2
100
AcDbLine
 10
-28.449999706
 20
5.503457462
 30
0.0
 11
-27.999999706
 21
9.003457462
 31
0.0
  0
LINE
  5
AA
330
1D
100
AcDbEntity
  8
SK2
100
AcDbLine
 10
-27.999999706
 20
-5.500447699
 30
0.0
 11
-27.999999706
 21
5.503457462
 31
0.0
  0
TEXT
  5
AB
330
1D
100
AcDbEntity
  8
SK2
100
AcDbText
 10
-29.499999706
 20
0.46962968
 30
0.0
 40
3.5
  1
18
 50
90.0
  7
BMG_Text
100
AcDbText
  0
CIRCLE
  5
AC
330
1D
100
AcDbEntity
  8
SK2
100
AcDbCircle
 10
-30.749999706
 20
-1.78037032
 30
0.0
 40
1.25
  0
LINE
  5
AD
330
1D
100
AcDbEntity
  8
SK2
100
AcDbLine
 10
-29.499999706
 20
-3.03037032
 30
0.0
 11
-31.999999706
 21
-0.53037032
 31
0.0
  0
LINE
  5
AE
330
1D
100
AcDbEntity
  8
2
100
AcDbLine
 10
0.0
 20
25.999999886
 30
0.0
 11
0.0
 21
13.511128312
 31
0.0
  0
LINE
  5
AF
330
1D
100
AcDbEntity
  8
2
100
AcDbLine
 10
0.0
 20
23.999999886
 30
0.0
 11
3.500000004
 21
24.449999857
 31
0.0
  0
LINE
  5
B0
330
1D
100
AcDbEntity
  8
2
100
AcDbLine
 10
3.500000004
 20
24.449999857
 30
0.0
 11
3.499999996
 21
23.549999857
 31
0.0
  0
LINE
  5
B1
330
1D
100
AcDbEntity
  8
2
100
AcDbLine
 10
3.499999996
 20
23.549999857
 30
0.0
 11
0.0
 21
23.999999886
 31
0.0
  0
LINE
  5
B2
330
1D
100
AcDbEntity
  8
2
100
AcDbLine
 10
40.00334728
 20
25.999999548
 30
0.0
 11
40.00334728
 21
15.987000013
 31
0.0
  0
LINE
  5
B3
330
1D
100
AcDbEntity
  8
2
100
AcDbLine
 10
40.00334728
 20
23.999999548
 30
0.0
 11
36.503347276
 21
23.549999577
 31
0.0
  0
LINE
  5
B4
330
1D
100
AcDbEntity
  8
2
100
AcDbLine
 10
36.503347276
 20
23.549999577
 30
0.0
 11
36.503347284
 21
24.449999577
 31
0.0
  0
LINE
  5
B5
330
1D
100
AcDbEntity
  8
2
100
AcDbLine
 10
36.503347284
 20
24.449999577
 30
0.0
 11
40.00334728
 21
23.999999548
 31
0.0
  0
LINE
  5
B6
330
1D
100
AcDbEntity
  8
2
100
AcDbLine
 10
3.5
 20
23.999999857
 30
0.0
 11
36.50334728
 21
23.999999577
 31
0.0
  0
TEXT
  5
B7
330
1D
100
AcDbEntity
  8
2
100
AcDbText
 10
18.336985706
 20
25.499999731
 30
0.0
 40
3.5
  1
40
 50
359.999999515
  7
BMG_Text
100
AcDbText
  0
LINE
  5
B8
330
1D
100
AcDbEntity
  8
2
100
AcDbLine
 10
0.0
 20
-29.999999921
 30
0.0
 11
0.0
 21
-13.50811855
 31
0.0
  0
LINE
  5
B9
330
1D
100
AcDbEntity
  8
2
100
AcDbLine
 10
0.0
 20
-27.999999921
 30
0.0
 11
3.499999998
 21
-27.549999908
 31
0.0
  0
LINE
  5
BA
330
1D
100
AcDbEntity
  8
2
100
AcDbLine
 10
3.499999998
 20
-27.549999908
 30
0.0
 11
3.500000002
 21
-28.449999908
 31
0.0
  0
LINE
  5
BB
330
1D
100
AcDbEntity
  8
2
100
AcDbLine
 10
3.500000002
 20
-28.449999908
 30
0.0
 11
0.0
 21
-27.999999921
 31
0.0
  0
LINE
  5
BC
330
1D
100
AcDbEntity
  8
2
100
AcDbLine
 10
36.99748954
 20
-29.999999783
 30
0.0
 11
36.99748954
 21
-12.005189679
 31
0.0
  0
LINE
  5
BD
330
1D
100
AcDbEntity
  8
2
100
AcDbLine
 10
36.99748954
 20
-27.999999783
 30
0.0
 11
33.497489542
 21
-28.449999796
 31
0.0
  0
LINE
  5
BE
330
1D
100
AcDbEntity
  8
2
100
AcDbLine
 10
33.497489542
 20
-28.449999796
 30
0.0
 11
33.497489538
 21
-27.549999796
 31
0.0
  0
LINE
  5
BF
330
1D
100
AcDbEntity
  8
2
100
AcDbLine
 10
33.497489538
 20
-27.549999796
 30
0.0
 11
36.99748954
 21
-27.999999783
 31
0.0
  0
LINE
  5
C0
330
1D
100
AcDbEntity
  8
2
100
AcDbLine
 10
3.5
 20
-27.999999908
 30
0.0
 11
33.49748954
 21
-27.999999796
 31
0.0
  0
TEXT
  5
C1
330
1D
100
AcDbEntity
  8
2
100
AcDbText
 10
17.025463101
 20
-26.499999857
 30
0.0
 40
3.5
  1
37
 50
0.000000212
  7
BMG_Text
100
AcDbText
  0
LINE
  5
C2
330
1D
100
AcDbEntity
  8
2
100
AcDbLine
 10
53.999999883
 20
15.987000625
 30
0.0
 11
40.00334728
 21
15.987000013
 31
0.0
  0
LINE
  5
C3
330
1D
100
AcDbEntity
  8
2
100
AcDbLine
 10
51.999999883
 20
15.987000538
 30
0.0
 11
52.450000036
 21
12.487000557
 31
0.0
  0
LINE
  5
C4
330
1D
100
AcDbEntity
  8
2
100
AcDbLine
 10
52.450000036
 20
12.487000557
 30
0.0
 11
51.550000036
 21
12.487000518
 31
0.0
  0
LINE
  5
C5
330
1D
100
AcDbEntity
  8
2
100
AcDbLine
 10
51.550000036
 20
12.487000518
 30
0.0
 11
51.999999883
 21
15.987000538
 31
0.0
  0
LINE
  5
C6
330
1D
100
AcDbEntity
  8
2
100
AcDbLine
 10
52.000000652
 20
-1.612999429
 30
0.0
 11
52.000000036
 21
12.487000538
 31
0.0
  0
TEXT
  5
C7
330
1D
100
AcDbEntity
  8
2
100
AcDbText
 10
50.500001174
 20
1.342109446949674
 30
0.0
 40
3.5
  1
32
 50
90.00000250400001
  7
BMG_Text
100
AcDbText
  0
CIRCLE
  5
C8
330
1D
100
AcDbEntity
  8
2
100
AcDbCircle
 10
49.250001273
 20
-0.9078906080503255
 30
0.0
 40
1.25
  0
LINE
  5
C9
330
1D
100
AcDbEntity
  8
2
100
AcDbLine
 10
50.500001327
 20
-2.157890553050326
 30
0.0
 11
48.00000121799999
 21
0.3421093379496747
 31
0.0
  0
TEXT
  5
CA
330
1D
100
AcDbEntity
  8
2
100
AcDbText
 10
50.50000098
 20
5.788671946949675
 30
0.0
 40
3.5
  1
-42
 50
90.00000250400001
  7
BMG_Text
100
AcDbText
  0
TEXT
  5
CB
330
1D
100
AcDbEntity
  8
SK6
100
AcDbText
 10
44.43853296619577
 20
-31.43846456602691
 30
0.0
 40
3.5
  1
310.305A
  7
BMG_Text
100
AcDbText
  0
LINE
  5
CC
330
1D
100
AcDbEntity
  8
SK4
100
AcDbLine
 10
35.94578464
 20
12.66733599
 30
0.0
 11
39.545784862
 21
12.66733599
 31
0.0
  0
LINE
  5
CD
330
1D
100
AcDbEntity
  8
SK4
100
AcDbLine
 10
37.745784751
 20
10.867335879
 30
0.0
 11
37.745784751
 21
14.467336101
 31
0.0
  0
LINE
  5
170
330
1D
100
AcDbEntity
  8
1
100
AcDbLine
 10
34.008029929
 20
13.1234746
 30
0.0
 11
39.56380136093244
 21
15.95430313257623
 31
0.0
  0
LINE
  5
171
330
1D
100
AcDbEntity
  8
1
100
AcDbLine
 10
39.99958885770129
 20
15.67129601997439
 30
0.0
 11
39.673255911
 21
9.444443228
 31
0.0
  0
LINE
  5
172
330
1D
100
AcDbEntity
  8
1
100
AcDbLine
 10
39.210273734
 20
9.20853472
 30
0.0
 11
33.980823508
 21
12.604568961
 31
0.0
  0
ARC
  5
173
330
1D
100
AcDbEntity
  8
1
100
AcDbCircle
 10
39.70001677903003
 20
15.68700798264857
 30
0.0
 40
0.2999829934919554
100
AcDbArc
 50
356.997620578759
 51
117.0040553271895
  0
ARC
  5
174
330
1D
100
AcDbEntity
  8
1
100
AcDbCircle
 10
39.37365533789932
 20
9.460157224128425
 30
0.0
 40
0.3000123882051812
100
AcDbArc
 50
237.0038377615952
 51
356.9975978478342
  0
ARC
  5
176
330
1D
100
AcDbEntity
  8
1
100
AcDbCircle
 10
34.14421050780989
 20
12.85616855917291
 30
0.0
 40
0.2999961158209361
100
AcDbArc
 50
116.9968259883175
 51
237.0005910009362
  0
LINE
  5
17A
330
1D
100
AcDbEntity
  8
3
100
AcDbLine
 10
38.680244437
 20
15.504089835
 30
0.0
 11
39.73445748438144
 21
15.62952748649583
 31
0.0
  0
LINE
  5
17B
330
1D
100
AcDbEntity
  8
3
100
AcDbLine
 10
39.73445748438144
 20
15.62952748649583
 30
0.0
 11
39.3653122537626
 21
9.317452609042524
 31
0.0
  0
LINE
  5
17C
330
1D
100
AcDbEntity
  8
3
100
AcDbLine
 10
39.3653122537626
 20
9.317452609042524
 30
0.0
 11
39.344558707
 21
9.161560538
 31
0.0
  0
LINE
  5
17D
330
1D
100
AcDbEntity
  8
1
100
AcDbLine
 10
35.505260459
 20
13.886353018
 30
0.0
 11
38.680244437
 21
15.504089835
 31
0.0
  0
LINE
  5
17E
330
1D
100
AcDbEntity
  8
1
100
AcDbLine
 10
35.390110007
 20
11.689369681
 30
0.0
 11
39.34231145348853
 21
9.118677168007757
 31
0.0
  0
LINE
  5
181
330
1D
100
AcDbEntity
  8
NOCUT
100
AcDbLine
 10
24.749790795
 20
14.134838214
 30
0.0
 11
29.257461646
 21
14.134838214
 31
0.0
  0
LINE
  5
183
330
1D
100
AcDbEntity
  8
NOCUT
100
AcDbLine
 10
0.0
 20
0.0015048809999989
 30
0.0
 11
0.0
 21
13.511128312
 31
0.0
  0
LINE
  5
184
330
1D
100
AcDbEntity
  8
NOCUT
100
AcDbLine
 10
0.0
 20
13.511128312
 30
0.0
 11
0.312412831
 21
13.794531381
 31
0.0
  0
LINE
  5
185
330
1D
100
AcDbEntity
  8
NOCUT
100
AcDbLine
 10
0.312412831
 20
13.794531381
 30
0.0
 11
0.312412831
 21
14.503039052
 31
0.0
  0
LINE
  5
186
330
1D
100
AcDbEntity
  8
NOCUT
100
AcDbLine
 10
0.312412831
 20
14.503039052
 30
0.0
 11
0.794421199
 21
15.012941423
 31
0.0
  0
LINE
  5
187
330
1D
100
AcDbEntity
  8
NOCUT
100
AcDbLine
 10
0.794421199
 20
15.012941423
 30
0.0
 11
18.314086471
 21
15.012941423
 31
0.0
  0
LINE
  5
188
330
1D
100
AcDbEntity
  8
NOCUT
100
AcDbLine
 10
18.314086471
 20
15.012941423
 30
0.0
 11
18.711297071
 21
13.511128312
 31
0.0
  0
LINE
  5
189
330
1D
100
AcDbEntity
  8
NOCUT
100
AcDbLine
 10
18.711297071
 20
13.511128312
 30
0.0
 11
20.57118664494184
 21
13.01225256814349
 31
0.0
  0
LINE
  5
18A
330
1D
100
AcDbEntity
  8
NOCUT
100
AcDbLine
 10
20.57118664494184
 20
13.01225256814349
 30
0.0
 11
21.45952027258521
 21
13.25090417124167
 31
0.0
  0
LINE
  5
18B
330
1D
100
AcDbEntity
  8
NOCUT
100
AcDbLine
 10
23.000408164
 20
13.986999991
 30
0.0
 11
23.72272229029648
 21
13.85891536529574
 31
0.0
  0
LINE
  5
18C
330
1D
100
AcDbEntity
  8
NOCUT
100
AcDbLine
 10
23.72272229029648
 20
13.85891536529574
 30
0.0
 11
24.749790795
 21
14.134838214
 31
0.0
  0
LINE
  5
18D
330
1D
100
AcDbEntity
  8
NOCUT
100
AcDbLine
 10
24.749790795
 20
14.134838214
 30
0.0
 11
29.257461646
 21
14.134838214
 31
0.0
  0
LINE
  5
18E
330
1D
100
AcDbEntity
  8
NOCUT
100
AcDbLine
 10
29.257461646
 20
14.134838214
 30
0.0
 11
30.28226567411146
 21
13.85957761758728
 31
0.0
  0
LINE
  5
18F
330
1D
100
AcDbEntity
  8
NOCUT
100
AcDbLine
 10
31.000415793
 20
13.986999991
 30
0.0
 11
31.260227194
 21
13.986999991
 31
0.0
  0
LINE
  5
190
330
1D
100
AcDbEntity
  8
NOCUT
100
AcDbLine
 10
31.260227194
 20
13.986999991
 30
0.0
 11
32.777286521
 21
15.504089835
 31
0.0
  0
LINE
  5
191
330
1D
100
AcDbEntity
  8
NOCUT
100
AcDbLine
 10
32.777286521
 20
15.504089835
 30
0.0
 11
38.680244437
 21
15.504089835
 31
0.0
  0
LINE
  5
192
330
1D
100
AcDbEntity
  8
NOCUT
100
AcDbLine
 10
38.680244437
 20
15.504089835
 30
0.0
 11
39.73445748438144
 21
15.62952748649583
 31
0.0
  0
LINE
  5
193
330
1D
100
AcDbEntity
  8
NOCUT
100
AcDbLine
 10
39.73445748438144
 20
15.62952748649583
 30
0.0
 11
39.344558707
 21
9.161560538
 31
0.0
  0
LINE
  5
194
330
1D
100
AcDbEntity
  8
NOCUT
100
AcDbLine
 10
39.344558707
 20
9.161560538
 30
0.0
 11
39.335407248
 21
8.986999991
 31
0.0
  0
LINE
  5
195
330
1D
100
AcDbEntity
  8
NOCUT
100
AcDbLine
 10
39.335407248
 20
8.986999991
 30
0.0
 11
35.61500767499022
 21
8.986999991
 31
0.0
  0
LINE
  5
196
330
1D
100
AcDbEntity
  8
NOCUT
100
AcDbLine
 10
35.61500767499022
 20
8.986999991
 30
0.0
 11
36.99748954
 21
8.606246862
 31
0.0
  0
LINE
  5
197
330
1D
100
AcDbEntity
  8
NOCUT
100
AcDbLine
 10
36.99748954
 20
8.606246862
 30
0.0
 11
36.99748954
 21
-0.0129999999999999
 31
0.0
  0
LINE
  5
198
330
1D
100
AcDbEntity
  8
NOCUT
100
AcDbLine
 10
36.99748954
 20
-0.0129999999999999
 30
0.0
 11
0.0
 21
-0.0129999999999954
 31
0.0
  0
ARC
  5
199
330
1D
100
AcDbEntity
  8
NOCUT
100
AcDbCircle
 10
22.7504308698905
 20
12.48700014938578
 30
0.0
 40
1.499999841614234
100
AcDbArc
 50
89.99999304392894
 51
149.384822798892
  0
LINE
  5
19A
330
1D
100
AcDbEntity
  8
NOCUT
100
AcDbLine
 10
22.750431052
 20
13.986999991
 30
0.0
 11
23.00841703761792
 21
13.986999991
 31
0.0
  0
LINE
  5
19B
330
1D
100
AcDbEntity
  8
NOCUT
100
AcDbLine
 10
30.28226567411146
 20
13.85957761758728
 30
0.0
 11
31.00041775263276
 21
13.98700018119311
 31
0.0
  0
LWPOLYLINE
  5
1D5
330
1D
100
AcDbEntity
  8
INFTOTAL
100
AcDbPolyline
 90
        4
 70
     1
 43
0.0
 10
-60.00841104483447
 20
41.46446891533451
 10
-60.00841104483447
 20
-33.23057531289685
 10
70.64708977132247
 20
-33.23057531289685
 10
70.64708977132247
 20
41.46446891533451
  0
CIRCLE
  5
1DA
330
1D
100
AcDbEntity
  8
SK1
100
AcDbCircle
 10
-7.740027894
 20
0.0015048814999998
 30
0.0
 40
2.243107989061789
  0
LINE
  5
1E0
330
1D
100
AcDbEntity
  8
SK3
100
AcDbLine
 10
-0.991910739
 20
4.494670851
 30
0.0
 11
0.0
 21
2.780676246398103
 31
0.0
  0
LINE
  5
1E1
330
1D
100
AcDbEntity
  8
SK3
100
AcDbLine
 10
-0.991910739
 20
-4.492776848
 30
0.0
 11
0.0
 21
-2.789388645733833
 31
0.0
  0
LINE
  5
1E2
330
1D
100
AcDbEntity
  8
SK3
100
AcDbLine
 10
-0.991910739
 20
4.494670851
 30
0.0
 11
0.0
 21
4.86668717282468
 31
0.0
  0
LINE
  5
1EC
330
1D
100
AcDbEntity
  8
4
100
AcDbLine
 10
0.0
 20
3.267658331801877
 30
0.0
 11
25.60111576
 21
12.858408647
 31
0.0
  0
LINE
  5
1ED
330
1D
100
AcDbEntity
  8
4
100
AcDbLine
 10
27.018131102
 20
16.118659693
 30
0.0
 11
27.018131102
 21
-16.11676569
 31
0.0
  0
LINE
  5
1EE
330
1D
100
AcDbEntity
  8
4
100
AcDbLine
 10
39.011436541
 20
-0.013
 30
0.0
 11
0.0
 21
-0.0129999999999954
 31
0.0
  0
LINE
  5
1EF
330
1D
100
AcDbEntity
  8
4
100
AcDbLine
 10
18.512691771
 20
9.003457462
 30
0.0
 11
18.512691771
 21
-1.997937238
 31
0.0
  0
LINE
  5
1FE
330
1D
100
AcDbEntity
  8
4
100
AcDbLine
 10
24.013389121
 20
3.502760112
 30
0.0
 11
13.013110181
 21
3.502760112
 31
0.0
  0
LINE
  5
1FF
330
1D
100
AcDbEntity
  8
4
100
AcDbLine
 10
39.545784862
 20
12.66733599
 30
0.0
 11
35.94578464
 21
12.66733599
 31
0.0
  0
LINE
  5
200
330
1D
100
AcDbEntity
  8
4
100
AcDbLine
 10
37.745784751
 20
14.467336101
 30
0.0
 11
37.745784751
 21
10.867335879
 31
0.0
  0
LINE
  5
204
330
1D
100
AcDbEntity
  8
3
100
AcDbLine
 10
39.344558707
 20
9.161560538
 30
0.0
 11
39.34231145348853
 21
9.118677168007757
 31
0.0
  0
LINE
  5
20C
102
{ACAD_REACTORS
330
221
102
}
330
1D
100
AcDbEntity
  8
CUT
100
AcDbLine
 10
34.008029929
 20
13.1234746
 30
0.0
 11
39.56380136093244
 21
15.95430313257623
 31
0.0
  0
LINE
  5
20D
102
{ACAD_REACTORS
330
221
102
}
330
1D
100
AcDbEntity
  8
CUT
100
AcDbLine
 10
39.99958885770129
 20
15.67129601997439
 30
0.0
 11
39.673255911
 21
9.444443228
 31
0.0
  0
LINE
  5
20E
102
{ACAD_REACTORS
330
221
102
}
330
1D
100
AcDbEntity
  8
CUT
100
AcDbLine
 10
39.210273734
 20
9.20853472
 30
0.0
 11
33.980823508
 21
12.604568961
 31
0.0
  0
ARC
  5
20F
102
{ACAD_REACTORS
330
221
102
}
330
1D
100
AcDbEntity
  8
CUT
100
AcDbCircle
 10
39.70001677903003
 20
15.68700798264857
 30
0.0
 40
0.2999829934919554
100
AcDbArc
 50
356.9976205787593
 51
117.0040553271893
  0
ARC
  5
210
102
{ACAD_REACTORS
330
221
102
}
330
1D
100
AcDbEntity
  8
CUT
100
AcDbCircle
 10
39.37365533789932
 20
9.460157224128423
 30
0.0
 40
0.3000123882051812
100
AcDbArc
 50
237.0038377615953
 51
356.9975978478346
  0
ARC
  5
211
102
{ACAD_REACTORS
330
221
102
}
330
1D
100
AcDbEntity
  8
CUT
100
AcDbCircle
 10
34.14421050780989
 20
12.85616855917291
 30
0.0
 40
0.2999961158209361
100
AcDbArc
 50
116.9968259883178
 51
237.0005910009362
  0
HATCH
  5
221
330
1D
100
AcDbEntity
  8
7
100
AcDbHatch
 10
0.0
 20
0.0
 30
0.0
210
0.0
220
0.0
230
1.0
  2
ANSI31
 70
     0
 71
     1
 91
        2
 92
        7
 72
     1
 73
     1
 93
        6
 10
39.67325591099961
 20
9.444443227992807
 42
0.0
 10
39.99958821742533
 20
15.6712957387436
 42
0.5773676423606873
 10
39.56380489646622
 20
15.95429413978811
 42
0.0
 10
34.00802992897815
 20
13.12347459998886
 42
0.577370193270882
 10
33.9808220134774
 20
12.60456993155134
 42
0.0
 10
39.21027373402097
 20
9.208534719986375
 42
0.5773139673777505
 97
        6
330
20D
330
20F
330
20C
330
211
330
20E
330
210
 92
       22
 72
     1
 73
     1
 93
        2
 10
36.545784677
 20
12.66733599
 42
1.0
 10
38.945784825
 20
12.66733599
 42
1.0
 97
        1
330
95
 75
     0
 76
     1
 52
0.0
 41
1.0
 77
     0
 78
     1
 53
45.0
 43
-17.26863325544906
 44
-17.24948637044912
 45
-0.0883883476483184
 46
0.0883883476483184
 79
     0
 47
0.0
 98
        2
 10
39.67388402402771
 20
15.2290147922722
 10
39.67388402402771
 20
15.2290147922722
1001
ACAD
1010
0.0
1020
0.0
1030
0.0
  0
LINE
  5
224
330
1D
100
AcDbEntity
  8
SK1
100
AcDbLine
 10
0.0
 20
9.003457462
 30
0.0
 11
0.0
 21
-9.000447699
 31
0.0
  0
ENDSEC
  0
SECTION
  2
OBJECTS
  0
DICTIONARY
  5
C
330
0
100
AcDbDictionary
281
     1
  3
ACAD_DETAILVIEWSTYLE
350
168
  3
ACAD_GROUP
350
D
  3
ACAD_LAYOUT
350
1A
  3
ACAD_MLINESTYLE
350
17
  3
ACAD_PLOTSETTINGS
350
19
  3
ACAD_PLOTSTYLENAME
350
E
  3
ACAD_SCALELIST
350
D4
  3
ACAD_SECTIONVIEWSTYLE
350
169
  3
AcDbVariableDictionary
350
116
  3
APPDATA
350
164
  3
DWGPROPS
350
244
  0
DICTIONARY
  5
16A
330
2
100
AcDbDictionary
280
     1
281
     1
  3
ACAD_LAYERSTATES
360
16B
  3
ACLYDICTIONARY
360
219
  0
DICTIONARY
  5
21C
330
1D
100
AcDbDictionary
280
     1
281
     1
  3
ACAD_SORTENTS
360
21D
  0
DICTIONARY
  5
168
102
{ACAD_REACTORS
330
C
102
}
330
C
100
AcDbDictionary
281
     1
  0
DICTIONARY
  5
D
102
{ACAD_REACTORS
330
C
102
}
330
C
100
AcDbDictionary
281
     1
  0
DICTIONARY
  5
1A
102
{ACAD_REACTORS
330
C
102
}
330
C
100
AcDbDictionary
281
     1
  3
Layout1
350
1C
  3
Model
350
1E
  0
DICTIONARY
  5
17
102
{ACAD_REACTORS
330
C
102
}
330
C
100
AcDbDictionary
281
     1
  3
Standard
350
18
  0
DICTIONARY
  5
19
102
{ACAD_REACTORS
330
C
102
}
330
C
100
AcDbDictionary
281
     1
  0
ACDBDICTIONARYWDFLT
  5
E
102
{ACAD_REACTORS
330
C
102
}
330
C
100
AcDbDictionary
281
     1
  3
Normal
350
F
100
AcDbDictionaryWithDefault
340
F
  0
DICTIONARY
  5
D4
102
{ACAD_REACTORS
330
C
102
}
330
C
100
AcDbDictionary
281
     1
  3
A0
350
D5
  3
A1
350
D6
  3
A2
350
D7
  3
A3
350
D8
  3
A4
350
D9
  3
A5
350
DA
  3
A6
350
DB
  3
A7
350
DC
  3
A8
350
DD
  3
A9
350
DE
  3
B0
350
DF
  3
B1
350
E0
  3
B2
350
E1
  3
B3
350
E2
  3
B4
350
E3
  3
B5
350
E4
  3
B6
350
E5
  3
B7
350
E6
  3
B8
350
E7
  3
B9
350
E8
  3
C0
350
E9
  3
C1
350
EA
  3
C2
350
EB
  3
C3
350
EC
  3
C4
350
ED
  3
C5
350
EE
  3
C6
350
EF
  3
C7
350
F0
  3
C8
350
F1
  3
C9
350
F2
  3
D0
350
F3
  3
D1
350
F4
  3
D2
350
F5
  0
DICTIONARY
  5
169
102
{ACAD_REACTORS
330
C
102
}
330
C
100
AcDbDictionary
281
     1
  0
DICTIONARY
  5
116
102
{ACAD_REACTORS
330
C
102
}
330
C
100
AcDbDictionary
281
     1
  3
DIMASSOC
350
11A
  3
HIDETEXT
350
11B
  0
DICTIONARY
  5
164
102
{ACAD_REACTORS
330
C
102
}
330
C
100
AcDbDictionary
281
     1
  0
XRECORD
  5
244
102
{ACAD_REACTORS
330
C
102
}
330
C
100
AcDbXrecord
280
     1
  1
DWGPROPS COOKIE
  2

  3

  4

  6

  7

  8
matthias.ochs
  9

300
=
301
=
302
=
303
=
304
=
305
=
306
=
307
=
308
=
309
=
 40
0.0
 41
2458327.465979711
 42
2458589.504410822
  1

 90
        0
  0
DICTIONARY
  5
16B
102
{ACAD_REACTORS
330
16A
102
}
330
16A
100
AcDbDictionary
281
     1
  0
DICTIONARY
  5
219
102
{ACAD_REACTORS
330
16A
102
}
330
16A
100
AcDbDictionary
281
     1
1001
ACAD
1000
<All
  0
SORTENTSTABLE
  5
21D
102
{ACAD_REACTORS
330
21C
102
}
330
21C
100
AcDbSortentsTable
330
1D
331
0
  5
17E
331
2D
  5
2E
331
2E
  5
2F
331
2F
  5
30
331
30
  5
31
331
31
  5
32
331
32
  5
33
331
33
  5
34
331
34
  5
35
331
35
  5
36
331
36
  5
37
331
37
  5
38
331
38
  5
39
331
39
  5
3A
331
3A
  5
3B
331
3B
  5
3C
331
3C
  5
3D
331
3D
  5
3E
331
3E
  5
3F
331
3F
  5
40
331
40
  5
41
331
41
  5
42
331
42
  5
43
331
43
  5
44
331
44
  5
45
331
45
  5
46
331
46
  5
47
331
47
  5
48
331
48
  5
59
331
59
  5
5A
331
5A
  5
5B
331
5B
  5
5C
331
5C
  5
5D
331
5D
  5
5E
331
5E
  5
60
331
5F
  5
61
331
60
  5
62
331
61
  5
63
331
62
  5
64
331
63
  5
65
331
64
  5
66
331
65
  5
67
331
66
  5
68
331
67
  5
69
331
68
  5
6A
331
69
  5
6B
331
6A
  5
6C
331
6B
  5
6D
331
6C
  5
6E
331
6D
  5
6F
331
6E
  5
70
331
6F
  5
71
331
70
  5
72
331
71
  5
73
331
72
  5
74
331
73
  5
75
331
74
  5
76
331
75
  5
77
331
76
  5
78
331
77
  5
79
331
78
  5
7A
331
79
  5
7B
331
7A
  5
7C
331
7B
  5
7D
331
7C
  5
7E
331
7D
  5
7F
331
7E
  5
80
331
7F
  5
81
331
80
  5
82
331
81
  5
83
331
82
  5
84
331
83
  5
85
331
84
  5
86
331
85
  5
87
331
86
  5
88
331
87
  5
89
331
88
  5
8A
331
89
  5
8B
331
8A
  5
92
331
8B
  5
93
331
92
  5
94
331
93
  5
95
331
94
  5
96
331
95
  5
9A
331
96
  5
9B
331
97
  5
9C
331
98
  5
9D
331
99
  5
9E
331
9A
  5
9F
331
9B
  5
A0
331
9C
  5
A1
331
9D
  5
A2
331
9E
  5
A3
331
9F
  5
A4
331
A0
  5
A5
331
A1
  5
A6
331
A2
  5
A7
331
A3
  5
A8
331
A4
  5
A9
331
A5
  5
AA
331
A6
  5
AB
331
A7
  5
AC
331
A8
  5
AD
331
A9
  5
AE
331
AA
  5
AF
331
AB
  5
B0
331
AC
  5
B1
331
AD
  5
B2
331
AE
  5
B3
331
AF
  5
B4
331
B0
  5
B5
331
B1
  5
B6
331
B2
  5
B7
331
B3
  5
B8
331
B4
  5
B9
331
B5
  5
BA
331
B6
  5
BB
331
B7
  5
BC
331
B8
  5
BD
331
B9
  5
BE
331
BA
  5
BF
331
BB
  5
C0
331
BC
  5
C1
331
BD
  5
C2
331
BE
  5
C3
331
BF
  5
C4
331
C0
  5
C5
331
C1
  5
C6
331
C2
  5
C7
331
C3
  5
C8
331
C4
  5
C9
331
C5
  5
CA
331
C6
  5
CB
331
C7
  5
CC
331
C8
  5
CD
331
C9
  5
170
331
CA
  5
171
331
CB
  5
172
331
CC
  5
173
331
CD
  5
174
331
170
  5
176
331
171
  5
177
331
172
  5
17A
331
173
  5
17B
331
174
  5
17C
331
176
  5
17D
331
17A
  5
181
331
17B
  5
183
331
17C
  5
184
331
17D
  5
185
331
17E
  5
186
331
181
  5
187
331
183
  5
188
331
184
  5
189
331
185
  5
18A
331
186
  5
18B
331
187
  5
18C
331
188
  5
18D
331
189
  5
18E
331
18A
  5
18F
331
18B
  5
190
331
18C
  5
191
331
18D
  5
192
331
18E
  5
193
331
18F
  5
194
331
190
  5
195
331
191
  5
196
331
192
  5
197
331
193
  5
198
331
194
  5
199
331
195
  5
19A
331
196
  5
19B
331
197
  5
1D5
331
198
  5
1DA
331
199
  5
1E0
331
19A
  5
1E1
331
19B
  5
1E2
331
1D5
  5
1EC
331
1DA
  5
1ED
331
1E0
  5
1EE
331
1E1
  5
1EF
331
1E2
  5
1FE
331
1EC
  5
1FF
331
1ED
  5
200
331
1EE
  5
204
331
1EF
  5
20C
331
1FE
  5
20D
331
1FF
  5
20E
331
200
  5
20F
331
204
  5
210
331
20C
  5
211
331
20D
  5
21B
331
20E
  5
21E
331
20F
  5
21F
331
210
  5
220
331
211
  5
221
331
221
  5
99
  0
LAYOUT
  5
1C
102
{ACAD_REACTORS
330
1A
102
}
330
1A
100
AcDbPlotSettings
  1

  2
none_device
  4

  6

 40
0.0
 41
0.0
 42
0.0
 43
0.0
 44
0.0
 45
0.0
 46
0.0
 47
0.0
 48
0.0
 49
0.0
140
0.0
141
0.0
142
1.0
143
1.0
 70
   688
 72
     0
 73
     0
 74
     5
  7

 75
    16
147
1.0
148
0.0
149
0.0
100
AcDbLayout
  1
Layout1
 70
     1
 71
     1
 10
0.0
 20
0.0
 11
12.0
 21
9.0
 12
0.0
 22
0.0
 32
0.0
 14
1.000000000000000E+20
 24
1.000000000000000E+20
 34
1.000000000000000E+20
 15
-1.000000000000000E+20
 25
-1.000000000000000E+20
 35
-1.000000000000000E+20
146
0.0
 13
0.0
 23
0.0
 33
0.0
 16
1.0
 26
0.0
 36
0.0
 17
0.0
 27
1.0
 37
0.0
 76
     0
330
1B
  0
LAYOUT
  5
1E
102
{ACAD_REACTORS
330
1A
102
}
330
1A
100
AcDbPlotSettings
  1

  2
none_device
  4

  6

 40
0.0
 41
0.0
 42
0.0
 43
0.0
 44
0.0
 45
0.0
 46
0.0
 47
0.0
 48
0.0
 49
0.0
140
0.0
141
0.0
142
1.0
143
1.0
 70
  1712
 72
     0
 73
     0
 74
     0
  7

 75
     0
147
1.0
148
0.0
149
0.0
100
AcDbLayout
  1
Model
 70
     1
 71
     0
 10
0.0
 20
0.0
 11
12.0
 21
9.0
 12
0.0
 22
0.0
 32
0.0
 14
-60.00841104483447
 24
-33.23057531289685
 34
0.0
 15
70.64708977132247
 25
41.46446891533451
 35
0.0
146
0.0
 13
0.0
 23
0.0
 33
0.0
 16
1.0
 26
0.0
 36
0.0
 17
0.0
 27
1.0
 37
0.0
 76
     0
330
1D
331
CE
  0
MLINESTYLE
  5
18
102
{ACAD_REACTORS
330
17
102
}
330
17
100
AcDbMlineStyle
  2
Standard
 70
     0
  3

 62
   256
 51
90.0
 52
90.0
 71
     2
 49
0.5
 62
   256
  6
BYLAYER
 49
-0.5
 62
   256
  6
BYLAYER
  0
ACDBPLACEHOLDER
  5
F
102
{ACAD_REACTORS
330
E
102
}
330
E
  0
SCALE
  5
D5
102
{ACAD_REACTORS
330
D4
102
}
330
D4
100
AcDbScale
 70
     0
300
1:1
140
1.0
141
1.0
290
     1
  0
SCALE
  5
D6
102
{ACAD_REACTORS
330
D4
102
}
330
D4
100
AcDbScale
 70
     0
300
1:2
140
1.0
141
2.0
290
     0
  0
SCALE
  5
D7
102
{ACAD_REACTORS
330
D4
102
}
330
D4
100
AcDbScale
 70
     0
300
1:4
140
1.0
141
4.0
290
     0
  0
SCALE
  5
D8
102
{ACAD_REACTORS
330
D4
102
}
330
D4
100
AcDbScale
 70
     0
300
1:5
140
1.0
141
5.0
290
     0
  0
SCALE
  5
D9
102
{ACAD_REACTORS
330
D4
102
}
330
D4
100
AcDbScale
 70
     0
300
1:8
140
1.0
141
8.0
290
     0
  0
SCALE
  5
DA
102
{ACAD_REACTORS
330
D4
102
}
330
D4
100
AcDbScale
 70
     0
300
1:10
140
1.0
141
10.0
290
     0
  0
SCALE
  5
DB
102
{ACAD_REACTORS
330
D4
102
}
330
D4
100
AcDbScale
 70
     0
300
1:16
140
1.0
141
16.0
290
     0
  0
SCALE
  5
DC
102
{ACAD_REACTORS
330
D4
102
}
330
D4
100
AcDbScale
 70
     0
300
1:20
140
1.0
141
20.0
290
     0
  0
SCALE
  5
DD
102
{ACAD_REACTORS
330
D4
102
}
330
D4
100
AcDbScale
 70
     0
300
1:30
140
1.0
141
30.0
290
     0
  0
SCALE
  5
DE
102
{ACAD_REACTORS
330
D4
102
}
330
D4
100
AcDbScale
 70
     0
300
1:40
140
1.0
141
40.0
290
     0
  0
SCALE
  5
DF
102
{ACAD_REACTORS
330
D4
102
}
330
D4
100
AcDbScale
 70
     0
300
1:50
140
1.0
141
50.0
290
     0
  0
SCALE
  5
E0
102
{ACAD_REACTORS
330
D4
102
}
330
D4
100
AcDbScale
 70
     0
300
1:100
140
1.0
141
100.0
290
     0
  0
SCALE
  5
E1
102
{ACAD_REACTORS
330
D4
102
}
330
D4
100
AcDbScale
 70
     0
300
2:1
140
2.0
141
1.0
290
     0
  0
SCALE
  5
E2
102
{ACAD_REACTORS
330
D4
102
}
330
D4
100
AcDbScale
 70
     0
300
4:1
140
4.0
141
1.0
290
     0
  0
SCALE
  5
E3
102
{ACAD_REACTORS
330
D4
102
}
330
D4
100
AcDbScale
 70
     0
300
8:1
140
8.0
141
1.0
290
     0
  0
SCALE
  5
E4
102
{ACAD_REACTORS
330
D4
102
}
330
D4
100
AcDbScale
 70
     0
300
10:1
140
10.0
141
1.0
290
     0
  0
SCALE
  5
E5
102
{ACAD_REACTORS
330
D4
102
}
330
D4
100
AcDbScale
 70
     0
300
100:1
140
100.0
141
1.0
290
     0
  0
SCALE
  5
E6
102
{ACAD_REACTORS
330
D4
102
}
330
D4
100
AcDbScale
 70
     0
300
1/128" = 1'-0"
140
0.0078125
141
12.0
290
     0
  0
SCALE
  5
E7
102
{ACAD_REACTORS
330
D4
102
}
330
D4
100
AcDbScale
 70
     0
300
1/64" = 1'-0"
140
0.015625
141
12.0
290
     0
  0
SCALE
  5
E8
102
{ACAD_REACTORS
330
D4
102
}
330
D4
100
AcDbScale
 70
     0
300
1/32" = 1'-0"
140
0.03125
141
12.0
290
     0
  0
SCALE
  5
E9
102
{ACAD_REACTORS
330
D4
102
}
330
D4
100
AcDbScale
 70
     0
300
1/16" = 1'-0"
140
0.0625
141
12.0
290
     0
  0
SCALE
  5
EA
102
{ACAD_REACTORS
330
D4
102
}
330
D4
100
AcDbScale
 70
     0
300
3/32" = 1'-0"
140
0.09375
141
12.0
290
     0
  0
SCALE
  5
EB
102
{ACAD_REACTORS
330
D4
102
}
330
D4
100
AcDbScale
 70
     0
300
1/8" = 1'-0"
140
0.125
141
12.0
290
     0
  0
SCALE
  5
EC
102
{ACAD_REACTORS
330
D4
102
}
330
D4
100
AcDbScale
 70
     0
300
3/16" = 1'-0"
140
0.1875
141
12.0
290
     0
  0
SCALE
  5
ED
102
{ACAD_REACTORS
330
D4
102
}
330
D4
100
AcDbScale
 70
     0
300
1/4" = 1'-0"
140
0.25
141
12.0
290
     0
  0
SCALE
  5
EE
102
{ACAD_REACTORS
330
D4
102
}
330
D4
100
AcDbScale
 70
     0
300
3/8" = 1'-0"
140
0.375
141
12.0
290
     0
  0
SCALE
  5
EF
102
{ACAD_REACTORS
330
D4
102
}
330
D4
100
AcDbScale
 70
     0
300
1/2" = 1'-0"
140
0.5
141
12.0
290
     0
  0
SCALE
  5
F0
102
{ACAD_REACTORS
330
D4
102
}
330
D4
100
AcDbScale
 70
     0
300
3/4" = 1'-0"
140
0.75
141
12.0
290
     0
  0
SCALE
  5
F1
102
{ACAD_REACTORS
330
D4
102
}
330
D4
100
AcDbScale
 70
     0
300
1" = 1'-0"
140
1.0
141
12.0
290
     0
  0
SCALE
  5
F2
102
{ACAD_REACTORS
330
D4
102
}
330
D4
100
AcDbScale
 70
     0
300
1-1/2" = 1'-0"
140
1.5
141
12.0
290
     0
  0
SCALE
  5
F3
102
{ACAD_REACTORS
330
D4
102
}
330
D4
100
AcDbScale
 70
     0
300
3" = 1'-0"
140
3.0
141
12.0
290
     0
  0
SCALE
  5
F4
102
{ACAD_REACTORS
330
D4
102
}
330
D4
100
AcDbScale
 70
     0
300
6" = 1'-0"
140
6.0
141
12.0
290
     0
  0
SCALE
  5
F5
102
{ACAD_REACTORS
330
D4
102
}
330
D4
100
AcDbScale
 70
     0
300
1'-0" = 1'-0"
140
12.0
141
12.0
290
     0
  0
DICTIONARYVAR
  5
11A
102
{ACAD_REACTORS
330
116
102
}
330
116
100
DictionaryVariables
280
     0
  1
2
  0
DICTIONARYVAR
  5
11B
102
{ACAD_REACTORS
330
116
102
}
330
116
100
DictionaryVariables
280
     0
  1
1
  0
ENDSEC
  0
EOF
