  0
SECTION
  2
HEADER
  9
$ACADVER
  1
AC1015
  9
$ACADMAINTVER
 70
     6
  9
$DWGCODEPAGE
  3
ANSI_1252
  9
$INSBASE
 10
0.0
 20
0.0
 30
0.0
  9
$EXTMIN
 10
-37.93764573834277
 20
-37.27373702449119
 30
0.0
  9
$EXTMAX
 10
61.44128752855285
 20
24.66063388648483
 30
0.0
  9
$LIMMIN
 10
-15.529999997
 20
-14.398818045
  9
$LIMMAX
 10
38.529999744
 20
19.398818044
  9
$ORTHOMODE
 70
     0
  9
$REGENMODE
 70
     1
  9
$FILLMODE
 70
     1
  9
$QTEXTMODE
 70
     0
  9
$MIRRTEXT
 70
     1
  9
$LTSCALE
 40
1.0
  9
$ATTMODE
 70
     1
  9
$TEXTSIZE
 40
0.2
  9
$TRACEWID
 40
0.05
  9
$TEXTSTYLE
  7
Standard
  9
$CLAYER
  8
7
  9
$CELTYPE
  6
ByLayer
  9
$CECOLOR
 62
   256
  9
$CELTSCALE
 40
1.0
  9
$DISPSILH
 70
     0
  9
$DIMSCALE
 40
1.0
  9
$DIMASZ
 40
0.18
  9
$DIMEXO
 40
0.0625
  9
$DIMDLI
 40
0.38
  9
$DIMRND
 40
0.0
  9
$DIMDLE
 40
0.0
  9
$DIMEXE
 40
0.18
  9
$DIMTP
 40
0.0
  9
$DIMTM
 40
0.0
  9
$DIMTXT
 40
0.18
  9
$DIMCEN
 40
0.09
  9
$DIMTSZ
 40
0.0
  9
$DIMTOL
 70
     0
  9
$DIMLIM
 70
     0
  9
$DIMTIH
 70
     1
  9
$DIMTOH
 70
     1
  9
$DIMSE1
 70
     0
  9
$DIMSE2
 70
     0
  9
$DIMTAD
 70
     0
  9
$DIMZIN
 70
     0
  9
$DIMBLK
  1

  9
$DIMASO
 70
     1
  9
$DIMSHO
 70
     1
  9
$DIMPOST
  1

  9
$DIMAPOST
  1

  9
$DIMALT
 70
     0
  9
$DIMALTD
 70
     2
  9
$DIMALTF
 40
25.4
  9
$DIMLFAC
 40
1.0
  9
$DIMTOFL
 70
     0
  9
$DIMTVP
 40
0.0
  9
$DIMTIX
 70
     0
  9
$DIMSOXD
 70
     0
  9
$DIMSAH
 70
     0
  9
$DIMBLK1
  1

  9
$DIMBLK2
  1

  9
$DIMSTYLE
  2
Standard
  9
$DIMCLRD
 70
     0
  9
$DIMCLRE
 70
     0
  9
$DIMCLRT
 70
     0
  9
$DIMTFAC
 40
1.0
  9
$DIMGAP
 40
0.09
  9
$DIMJUST
 70
     0
  9
$DIMSD1
 70
     0
  9
$DIMSD2
 70
     0
  9
$DIMTOLJ
 70
     1
  9
$DIMTZIN
 70
     0
  9
$DIMALTZ
 70
     0
  9
$DIMALTTZ
 70
     0
  9
$DIMUPT
 70
     0
  9
$DIMDEC
 70
     4
  9
$DIMTDEC
 70
     4
  9
$DIMALTU
 70
     2
  9
$DIMALTTD
 70
     2
  9
$DIMTXSTY
  7
Standard
  9
$DIMAUNIT
 70
     0
  9
$DIMADEC
 70
     0
  9
$DIMALTRND
 40
0.0
  9
$DIMAZIN
 70
     0
  9
$DIMDSEP
 70
    46
  9
$DIMATFIT
 70
     3
  9
$DIMFRAC
 70
     0
  9
$DIMLDRBLK
  1

  9
$DIMLUNIT
 70
     2
  9
$DIMLWD
 70
    -2
  9
$DIMLWE
 70
    -2
  9
$DIMTMOVE
 70
     2
  9
$LUNITS
 70
     2
  9
$LUPREC
 70
     4
  9
$SKETCHINC
 40
0.1
  9
$FILLETRAD
 40
0.5
  9
$AUNITS
 70
     2
  9
$AUPREC
 70
     0
  9
$MENU
  1
.
  9
$ELEVATION
 40
0.0
  9
$PELEVATION
 40
0.0
  9
$THICKNESS
 40
0.0
  9
$LIMCHECK
 70
     0
  9
$CHAMFERA
 40
0.5
  9
$CHAMFERB
 40
0.5
  9
$CHAMFERC
 40
1.0
  9
$CHAMFERD
 40
0.0
  9
$SKPOLY
 70
     0
  9
$TDCREATE
 40
2458327.544381991
  9
$TDUCREATE
 40
2458327.461048658
  9
$TDUPDATE
 40
2458589.586350498
  9
$TDUUPDATE
 40
2458589.503017164
  9
$TDINDWG
 40
0.0105227083
  9
$TDUSRTIMER
 40
0.0001047338
  9
$USRTIMER
 70
     1
  9
$ANGBASE
 50
0.0
  9
$ANGDIR
 70
     0
  9
$PDMODE
 70
     0
  9
$PDSIZE
 40
0.0
  9
$PLINEWID
 40
0.0
  9
$SPLFRAME
 70
     0
  9
$SPLINETYPE
 70
     6
  9
$SPLINESEGS
 70
     8
  9
$HANDSEED
  5
2E6
  9
$SURFTAB1
 70
     6
  9
$SURFTAB2
 70
     6
  9
$SURFTYPE
 70
     6
  9
$SURFU
 70
     6
  9
$SURFV
 70
     6
  9
$UCSBASE
  2

  9
$UCSNAME
  2

  9
$UCSORG
 10
0.0
 20
0.0
 30
0.0
  9
$UCSXDIR
 10
1.0
 20
0.0
 30
0.0
  9
$UCSYDIR
 10
0.0
 20
1.0
 30
0.0
  9
$UCSORTHOREF
  2

  9
$UCSORTHOVIEW
 70
     0
  9
$UCSORGTOP
 10
0.0
 20
0.0
 30
0.0
  9
$UCSORGBOTTOM
 10
0.0
 20
0.0
 30
0.0
  9
$UCSORGLEFT
 10
0.0
 20
0.0
 30
0.0
  9
$UCSORGRIGHT
 10
0.0
 20
0.0
 30
0.0
  9
$UCSORGFRONT
 10
0.0
 20
0.0
 30
0.0
  9
$UCSORGBACK
 10
0.0
 20
0.0
 30
0.0
  9
$PUCSBASE
  2

  9
$PUCSNAME
  2

  9
$PUCSORG
 10
0.0
 20
0.0
 30
0.0
  9
$PUCSXDIR
 10
1.0
 20
0.0
 30
0.0
  9
$PUCSYDIR
 10
0.0
 20
1.0
 30
0.0
  9
$PUCSORTHOREF
  2

  9
$PUCSORTHOVIEW
 70
     0
  9
$PUCSORGTOP
 10
0.0
 20
0.0
 30
0.0
  9
$PUCSORGBOTTOM
 10
0.0
 20
0.0
 30
0.0
  9
$PUCSORGLEFT
 10
0.0
 20
0.0
 30
0.0
  9
$PUCSORGRIGHT
 10
0.0
 20
0.0
 30
0.0
  9
$PUCSORGFRONT
 10
0.0
 20
0.0
 30
0.0
  9
$PUCSORGBACK
 10
0.0
 20
0.0
 30
0.0
  9
$USERI1
 70
     0
  9
$USERI2
 70
     0
  9
$USERI3
 70
     0
  9
$USERI4
 70
     0
  9
$USERI5
 70
     0
  9
$USERR1
 40
0.0
  9
$USERR2
 40
0.0
  9
$USERR3
 40
0.0
  9
$USERR4
 40
0.0
  9
$USERR5
 40
0.0
  9
$WORLDVIEW
 70
     1
  9
$SHADEDGE
 70
     3
  9
$SHADEDIF
 70
    70
  9
$TILEMODE
 70
     1
  9
$MAXACTVP
 70
    64
  9
$PINSBASE
 10
0.0
 20
0.0
 30
0.0
  9
$PLIMCHECK
 70
     0
  9
$PEXTMIN
 10
1.000000000000000E+20
 20
1.000000000000000E+20
 30
1.000000000000000E+20
  9
$PEXTMAX
 10
-1.000000000000000E+20
 20
-1.000000000000000E+20
 30
-1.000000000000000E+20
  9
$PLIMMIN
 10
0.0
 20
0.0
  9
$PLIMMAX
 10
0.0
 20
0.0
  9
$UNITMODE
 70
     0
  9
$VISRETAIN
 70
     1
  9
$PLINEGEN
 70
     0
  9
$PSLTSCALE
 70
     1
  9
$TREEDEPTH
 70
  3020
  9
$CMLSTYLE
  2
Standard
  9
$CMLJUST
 70
     0
  9
$CMLSCALE
 40
1.0
  9
$PROXYGRAPHICS
 70
     1
  9
$MEASUREMENT
 70
     0
  9
$CELWEIGHT
370
    -1
  9
$ENDCAPS
280
     0
  9
$JOINSTYLE
280
     0
  9
$LWDISPLAY
290
     0
  9
$INSUNITS
 70
     0
  9
$HYPERLINKBASE
  1

  9
$STYLESHEET
  1

  9
$XEDIT
290
     1
  9
$CEPSNTYPE
380
     0
  9
$PSTYLEMODE
290
     1
  9
$FINGERPRINTGUID
  2
{29143250-4CFC-49E9-9F03-F23F90FC4522}
  9
$VERSIONGUID
  2
{FAEB1C32-E019-11D5-929B-00C0DF256EC4}
  9
$EXTNAMES
290
     1
  9
$PSVPSCALE
 40
0.0
  9
$OLESTARTUP
290
     0
  0
ENDSEC
  0
SECTION
  2
CLASSES
  0
CLASS
  1
ACDBDICTIONARYWDFLT
  2
AcDbDictionaryWithDefault
  3
ObjectDBX Classes
 90
        0
280
     0
281
     0
  0
CLASS
  1
SCALE
  2
AcDbScale
  3
ObjectDBX Classes
 90
     1153
280
     0
281
     0
  0
CLASS
  1
VISUALSTYLE
  2
AcDbVisualStyle
  3
ObjectDBX Classes
 90
     4095
280
     0
281
     0
  0
CLASS
  1
MATERIAL
  2
AcDbMaterial
  3
ObjectDBX Classes
 90
     1153
280
     0
281
     0
  0
CLASS
  1
DICTIONARYVAR
  2
AcDbDictionaryVar
  3
ObjectDBX Classes
 90
        0
280
     0
281
     0
  0
CLASS
  1
ACDBPLACEHOLDER
  2
AcDbPlaceHolder
  3
ObjectDBX Classes
 90
        0
280
     0
281
     0
  0
CLASS
  1
LAYOUT
  2
AcDbLayout
  3
ObjectDBX Classes
 90
        0
280
     0
281
     0
  0
CLASS
  1
TABLESTYLE
  2
AcDbTableStyle
  3
ObjectDBX Classes
 90
     4095
280
     0
281
     0
  0
CLASS
  1
MLEADERSTYLE
  2
AcDbMLeaderStyle
  3
ACDB_MLEADERSTYLE_CLASS
 90
     4095
280
     0
281
     0
  0
CLASS
  1
SUN
  2
AcDbSun
  3
SCENEOE
 90
     1153
280
     0
281
     0
  0
CLASS
  1
SORTENTSTABLE
  2
AcDbSortentsTable
  3
ObjectDBX Classes
 90
        0
280
     0
281
     0
  0
CLASS
  1
CELLSTYLEMAP
  2
AcDbCellStyleMap
  3
ObjectDBX Classes
 90
     1152
280
     0
281
     0
  0
ENDSEC
  0
SECTION
  2
TABLES
  0
TABLE
  2
VPORT
  5
8
330
0
100
AcDbSymbolTable
 70
     1
  0
VPORT
  5
C3
330
8
100
AcDbSymbolTableRecord
100
AcDbViewportTableRecord
  2
*Active
 70
     0
 10
0.0
 20
0.0
 11
1.0
 21
1.0
 12
15.90459802303231
 22
-10.77961028363296
 13
0.0
 23
0.0
 14
0.5
 24
0.5
 15
0.5
 25
0.5
 16
0.0
 26
0.0
 36
1.0
 17
0.0
 27
0.0
 37
0.0
 40
129.4266692960326
 41
1.70021645021645
 42
50.0
 43
0.0
 44
0.0
 50
0.0
 51
0.0
 71
    16
 72
   100
 73
     1
 74
     3
 75
     0
 76
     0
 77
     0
 78
     0
281
     0
 65
     1
110
0.0
120
0.0
130
0.0
111
1.0
121
0.0
131
0.0
112
0.0
122
1.0
132
0.0
 79
     0
146
0.0
  0
ENDTAB
  0
TABLE
  2
LTYPE
  5
5
330
0
100
AcDbSymbolTable
 70
     8
  0
LTYPE
  5
14
330
5
100
AcDbSymbolTableRecord
100
AcDbLinetypeTableRecord
  2
ByBlock
 70
     0
  3

 72
    65
 73
     0
 40
0.0
  0
LTYPE
  5
15
330
5
100
AcDbSymbolTableRecord
100
AcDbLinetypeTableRecord
  2
ByLayer
 70
     0
  3

 72
    65
 73
     0
 40
0.0
  0
LTYPE
  5
16
330
5
100
AcDbSymbolTableRecord
100
AcDbLinetypeTableRecord
  2
Continuous
 70
     0
  3
Solid line
 72
    65
 73
     0
 40
0.0
  0
LTYPE
  5
20
330
5
100
AcDbSymbolTableRecord
100
AcDbLinetypeTableRecord
  2
PUNKT
 70
     0
  3
..............
 72
    65
 73
     2
 40
1.5
 49
0.7
 74
     0
 49
-0.8
 74
     0
  0
LTYPE
  5
21
330
5
100
AcDbSymbolTableRecord
100
AcDbLinetypeTableRecord
  2
GESTRICHELT
 70
     0
  3
-- -- -- -- --
 72
    65
 73
     7
 40
2.8
 49
0.9
 74
     0
 49
0.0
 74
     0
 49
0.9
 74
     0
 49
0.0
 74
     0
 49
0.2
 74
     0
 49
0.0
 74
     0
 49
-0.8
 74
     0
  0
LTYPE
  5
22
330
5
100
AcDbSymbolTableRecord
100
AcDbLinetypeTableRecord
  2
STRICHPUNKT
 70
     0
  3
--.--.--.--.--
 72
    65
 73
     4
 40
8.8
 49
5.5
 74
     0
 49
-1.3
 74
     0
 49
0.7
 74
     0
 49
-1.3
 74
     0
  0
LTYPE
  5
25
330
5
100
AcDbSymbolTableRecord
100
AcDbLinetypeTableRecord
  2
PHANTOM
 70
     0
  3
--..--..--..--
 72
    65
 73
     6
 40
14.2
 49
7.0
 74
     0
 49
-1.8
 74
     0
 49
0.9
 74
     0
 49
-1.8
 74
     0
 49
0.9
 74
     0
 49
-1.8
 74
     0
  0
LTYPE
  5
13D
330
5
100
AcDbSymbolTableRecord
100
AcDbLinetypeTableRecord
  2
DASH
 70
     0
  3
DASH _ _ _ _ _
 72
    65
 73
     2
 40
0.75
 49
0.4
 74
     0
 49
-0.35
 74
     0
  0
LTYPE
  5
13E
330
5
100
AcDbSymbolTableRecord
100
AcDbLinetypeTableRecord
  2
LONGDASH_DASH
 70
     0
  3
LONGDASH_DASH __ . __ . __
 72
    65
 73
     4
 40
0.85
 49
0.4
 74
     0
 49
-0.2
 74
     0
 49
0.05
 74
     0
 49
-0.2
 74
     0
  0
LTYPE
  5
13F
330
5
100
AcDbSymbolTableRecord
100
AcDbLinetypeTableRecord
  2
LONGDASH_DASH_DASH
 70
     0
  3
LONGDASH_DASH_DASH __ . . __ . . __
 72
    65
 73
     6
 40
1.1
 49
0.4
 74
     0
 49
-0.2
 74
     0
 49
0.05
 74
     0
 49
-0.2
 74
     0
 49
0.05
 74
     0
 49
-0.2
 74
     0
  0
ENDTAB
  0
TABLE
  2
LAYER
  5
2
102
{ACAD_XDICTIONARY
360
15C
102
}
330
0
100
AcDbSymbolTable
 70
    16
  0
LAYER
  5
106
330
2
100
AcDbSymbolTableRecord
100
AcDbLayerTableRecord
  2
200
 70
     0
 62
     2
  6
Continuous
370
    50
390
F
  0
LAYER
  5
140
330
2
100
AcDbSymbolTableRecord
100
AcDbLayerTableRecord
  2
0
 70
     0
 62
     1
  6
Continuous
370
    -3
390
F
  0
LAYER
  5
141
330
2
100
AcDbSymbolTableRecord
100
AcDbLayerTableRecord
  2
1
 70
     0
 62
     4
  6
Continuous
370
    50
390
F
  0
LAYER
  5
142
330
2
100
AcDbSymbolTableRecord
100
AcDbLayerTableRecord
  2
2
 70
     0
 62
     7
  6
Continuous
370
    25
390
F
  0
LAYER
  5
143
330
2
100
AcDbSymbolTableRecord
100
AcDbLayerTableRecord
  2
3
 70
     0
 62
     1
  6
DASH
370
    35
390
F
  0
LAYER
  5
144
330
2
100
AcDbSymbolTableRecord
100
AcDbLayerTableRecord
  2
4
 70
     0
 62
     2
  6
LONGDASH_DASH
370
    25
390
F
  0
LAYER
  5
145
330
2
100
AcDbSymbolTableRecord
100
AcDbLayerTableRecord
  2
6
 70
     0
 62
     5
  6
Continuous
370
    -3
390
F
  0
LAYER
  5
146
330
2
100
AcDbSymbolTableRecord
100
AcDbLayerTableRecord
  2
CUT
 70
     0
 62
     1
  6
Continuous
370
    25
390
F
  0
LAYER
  5
147
330
2
100
AcDbSymbolTableRecord
100
AcDbLayerTableRecord
  2
NOCUT
 70
     0
 62
     7
  6
Continuous
370
    25
390
F
  0
LAYER
  5
148
330
2
100
AcDbSymbolTableRecord
100
AcDbLayerTableRecord
  2
SK1
 70
     0
 62
     4
  6
Continuous
370
    50
390
F
  0
LAYER
  5
149
330
2
100
AcDbSymbolTableRecord
100
AcDbLayerTableRecord
  2
SK2
 70
     0
 62
     7
  6
Continuous
370
    25
390
F
  0
LAYER
  5
14A
330
2
100
AcDbSymbolTableRecord
100
AcDbLayerTableRecord
  2
SK3
 70
     0
 62
     1
  6
DASH
370
    35
390
F
  0
LAYER
  5
14B
330
2
100
AcDbSymbolTableRecord
100
AcDbLayerTableRecord
  2
SK4
 70
     0
 62
     2
  6
LONGDASH_DASH
370
    25
390
F
  0
LAYER
  5
14C
330
2
100
AcDbSymbolTableRecord
100
AcDbLayerTableRecord
  2
SK6
 70
     0
 62
     5
  6
Continuous
370
    -3
390
F
  0
LAYER
  5
14D
330
2
100
AcDbSymbolTableRecord
100
AcDbLayerTableRecord
  2
INFTOTAL
 70
     0
 62
     9
  6
Continuous
370
    18
390
F
  0
LAYER
  5
2DD
330
2
100
AcDbSymbolTableRecord
100
AcDbLayerTableRecord
  2
7
 70
     0
 62
     5
  6
Continuous
370
    -3
390
F
1001
AcAecLayerStandard
1000

1000

  0
ENDTAB
  0
TABLE
  2
STYLE
  5
3
330
0
100
AcDbSymbolTable
 70
     2
  0
STYLE
  5
11
330
3
100
AcDbSymbolTableRecord
100
AcDbTextStyleTableRecord
  2
Standard
 70
     0
 40
0.0
 41
1.0
 50
0.0
 71
     0
 42
0.2
  3
txt
  4

  0
STYLE
  5
105
330
3
100
AcDbSymbolTableRecord
100
AcDbTextStyleTableRecord
  2
BMG_Text
 70
     0
 40
3.5
 41
1.0
 50
0.0
 71
     0
 42
0.2
  3
monos.ttf
  4

1001
ACAD
1000
Monospac821 BT
1071
       49
  0
ENDTAB
  0
TABLE
  2
VIEW
  5
6
330
0
100
AcDbSymbolTable
 70
     0
  0
ENDTAB
  0
TABLE
  2
UCS
  5
7
330
0
100
AcDbSymbolTable
 70
     0
  0
ENDTAB
  0
TABLE
  2
APPID
  5
9
330
0
100
AcDbSymbolTable
 70
     2
  0
APPID
  5
12
330
9
100
AcDbSymbolTableRecord
100
AcDbRegAppTableRecord
  2
ACAD
 70
     0
  0
APPID
  5
2DE
330
9
100
AcDbSymbolTableRecord
100
AcDbRegAppTableRecord
  2
AcAecLayerStandard
 70
     0
  0
ENDTAB
  0
TABLE
  2
DIMSTYLE
  5
A
330
0
100
AcDbSymbolTable
 70
     1
100
AcDbDimStyleTable
  0
DIMSTYLE
105
28
330
A
100
AcDbSymbolTableRecord
100
AcDbDimStyleTableRecord
  2
Standard
 70
     0
178
     0
340
11
  0
ENDTAB
  0
TABLE
  2
BLOCK_RECORD
  5
1
330
0
100
AcDbSymbolTable
 70
     0
  0
BLOCK_RECORD
  5
1D
102
{ACAD_XDICTIONARY
360
2CE
102
}
330
1
100
AcDbSymbolTableRecord
100
AcDbBlockTableRecord
  2
*Model_Space
340
1E
  0
BLOCK_RECORD
  5
1B
330
1
100
AcDbSymbolTableRecord
100
AcDbBlockTableRecord
  2
*Paper_Space
340
1C
  0
ENDTAB
  0
ENDSEC
  0
SECTION
  2
BLOCKS
  0
BLOCK
  5
EE
330
1D
100
AcDbEntity
  8
0
100
AcDbBlockBegin
  2
*Model_Space
 70
     0
 10
0.0
 20
0.0
 30
0.0
  3
*Model_Space
  1

  0
ENDBLK
  5
EF
330
1D
100
AcDbEntity
  8
0
100
AcDbBlockEnd
  0
BLOCK
  5
EC
330
1B
100
AcDbEntity
 67
     1
  8
0
100
AcDbBlockBegin
  2
*Paper_Space
 70
     0
 10
0.0
 20
0.0
 30
0.0
  3
*Paper_Space
  1

  0
ENDBLK
  5
ED
330
1B
100
AcDbEntity
 67
     1
  8
0
100
AcDbBlockEnd
  0
ENDSEC
  0
SECTION
  2
ENTITIES
  0
ARC
  5
29
330
1D
100
AcDbEntity
  8
1
  6
Continuous
370
    25
100
AcDbCircle
 10
29.80000305
 20
8.30000305
 30
0.0
 40
0.19999695
100
AcDbArc
 50
356.99987793
 51
97.00067139000001
  0
LINE
  5
2A
330
1D
100
AcDbEntity
  8
1
  6
Continuous
370
    25
100
AcDbLine
 10
29.87191772
 20
5.85084534
 30
0.0
 11
29.99971771
 21
8.28955078
 31
0.0
  0
ARC
  5
2B
330
1D
100
AcDbEntity
  8
1
  6
Continuous
370
    25
100
AcDbCircle
 10
29.67221832
 20
5.86131287
 30
0.0
 40
0.19998378
100
AcDbArc
 50
336.99938965
 51
357.0006713899999
  0
ARC
  5
2E
330
1D
100
AcDbEntity
  8
1
  6
Continuous
370
    25
100
AcDbCircle
 10
27.90612793
 20
6.26907349
 30
0.0
 40
1.0
100
AcDbArc
 50
13.16281128
 51
20.83752441
  0
ARC
  5
2F
330
1D
100
AcDbEntity
  8
1
  6
Continuous
370
    25
100
AcDbCircle
 10
27.90612793
 20
6.26907349
 30
0.0
 40
1.0
100
AcDbArc
 50
73.1618042
 51
80.8371582
  0
ARC
  5
30
330
1D
100
AcDbEntity
  8
1
  6
Continuous
370
    25
100
AcDbCircle
 10
27.90612793
 20
6.26907349
 30
0.0
 40
1.0
100
AcDbArc
 50
313.16229248
 51
320.83764648
  0
ARC
  5
31
330
1D
100
AcDbEntity
  8
1
  6
Continuous
370
    25
100
AcDbCircle
 10
27.57479858
 20
7.35287476
 30
0.0
 40
0.5
100
AcDbArc
 50
227.0
 51
348.8644104
  0
ARC
  5
32
330
1D
100
AcDbEntity
  8
1
  6
Continuous
370
    25
100
AcDbCircle
 10
28.23748779
 20
5.18527222
 30
0.0
 40
0.5
100
AcDbArc
 50
45.134552
 51
168.8644104
  0
ARC
  5
33
330
1D
100
AcDbEntity
  8
1
  6
Continuous
370
    25
100
AcDbCircle
 10
28.67909241
 20
7.09793091
 30
0.0
 40
0.50000364
100
AcDbArc
 50
165.13696289
 51
288.86196899
  0
ARC
  5
34
330
1D
100
AcDbEntity
  8
1
  6
Continuous
370
    25
100
AcDbCircle
 10
29.01041412
 20
6.01412964
 30
0.0
 40
0.5
100
AcDbArc
 50
105.13558197
 51
228.86541748
  0
ARC
  5
35
330
1D
100
AcDbEntity
  8
1
100
AcDbCircle
 10
25.20032501
 20
6.89373779
 30
0.0
 40
0.2000021
100
AcDbArc
 50
117.00006104
 51
217.00134277
  0
LINE
  5
38
330
1D
100
AcDbEntity
  8
1
100
AcDbLine
 10
28.35081482
 20
3.61343384
 30
0.0
 11
25.5797348
 21
3.61343384
 31
0.0
  0
ARC
  5
39
330
1D
100
AcDbEntity
  8
1
  6
Continuous
370
    25
100
AcDbCircle
 10
28.71804047
 20
3.61343384
 30
0.0
 40
0.20000413
100
AcDbArc
 50
237.00012207
 51
337.00091553
  0
LINE
  5
3A
330
1D
100
AcDbEntity
  8
1
  6
Continuous
370
    25
100
AcDbLine
 10
29.85629272
 20
5.78317261
 30
0.0
 11
28.90214539
 21
3.53529358
 31
0.0
  0
ARC
  5
3C
330
1D
100
AcDbEntity
  8
1
  6
Continuous
370
    25
100
AcDbCircle
 10
27.90612793
 20
6.26907349
 30
0.0
 40
1.0
100
AcDbArc
 50
253.16244507
 51
260.83712769
  0
ARC
  5
3D
330
1D
100
AcDbEntity
  8
1
  6
Continuous
370
    25
100
AcDbCircle
 10
27.13319397
 20
5.44018555
 30
0.0
 40
0.50000364
100
AcDbArc
 50
345.13803101
 51
108.86303711
  0
ARC
  5
3E
330
1D
100
AcDbEntity
  8
1
  6
Continuous
370
    25
100
AcDbCircle
 10
27.90612793
 20
6.26907349
 30
0.0
 40
1.0
100
AcDbArc
 50
193.1628418
 51
200.8381958
  0
ARC
  5
3F
330
1D
100
AcDbEntity
  8
1
  6
Continuous
370
    25
100
AcDbCircle
 10
26.80184937
 20
6.52400208
 30
0.0
 40
0.5
100
AcDbArc
 50
285.13555908
 51
47.0
  0
ARC
  5
40
330
1D
100
AcDbEntity
  8
1
  6
Continuous
370
    25
100
AcDbCircle
 10
27.90612793
 20
6.26907349
 30
0.0
 40
1.0
100
AcDbArc
 50
133.162323
 51
140.837677
  0
ARC
  5
41
330
1D
100
AcDbEntity
  8
1
  6
Continuous
370
    25
100
AcDbCircle
 10
27.37615204
 20
8.00239563
 30
0.0
 40
0.2000021
100
AcDbArc
 50
96.99917603
 51
116.99865723
  0
LINE
  5
42
330
1D
100
AcDbEntity
  8
1
  6
Continuous
370
    25
100
AcDbLine
 10
29.77562714
 20
8.4985199
 30
0.0
 11
27.35177612
 21
8.20091248
 31
0.0
  0
LINE
  5
43
330
1D
100
AcDbEntity
  8
1
100
AcDbLine
 10
27.28535461
 20
8.18060303
 30
0.0
 11
25.10952759
 21
7.07192993
 31
0.0
  0
ARC
  5
44
330
1D
100
AcDbEntity
  8
1
100
AcDbCircle
 10
29.5
 20
8.11341858
 30
0.0
 40
4.99999952
100
AcDbArc
 50
185.29626465
 51
244.15765381
  0
LINE
  5
45
330
1D
100
AcDbEntity
  8
1
100
AcDbLine
 10
26.79579163
 20
7.93115234
 30
0.0
 11
23.08679962
 21
7.47576904
 31
0.0
  0
LINE
  5
46
330
1D
100
AcDbEntity
  8
1
100
AcDbLine
 10
23.08679962
 20
7.47576904
 30
0.0
 11
18.20000458
 21
7.47576904
 31
0.0
  0
ARC
  5
47
330
1D
100
AcDbEntity
  8
1
100
AcDbCircle
 10
18.412154974
 20
7.925483131
 30
0.0
 40
0.892661791
100
AcDbArc
 50
226.705251328
 51
242.826334501
  0
ARC
  5
48
330
1D
100
AcDbEntity
  8
1
100
AcDbCircle
 10
19.488070807
 20
10.103680601
 30
0.0
 40
3.322015466
100
AcDbArc
 50
243.474775967
 51
259.305107046
  0
ARC
  5
49
330
1D
100
AcDbEntity
  8
1
100
AcDbCircle
 10
21.037976447
 20
16.835812631
 30
0.0
 40
10.228496884
100
AcDbArc
 50
257.772105546
 51
265.1280182309999
  0
ARC
  5
4A
330
1D
100
AcDbEntity
  8
1
100
AcDbCircle
 10
21.671190416
 20
23.070119587
 30
0.0
 40
16.494369605
100
AcDbArc
 50
264.7756191600001
 51
270.100090568
  0
ARC
  5
4B
330
1D
100
AcDbEntity
  8
1
100
AcDbCircle
 10
21.728818744
 20
23.070119587
 30
0.0
 40
16.494369605
100
AcDbArc
 50
269.899909432
 51
275.2243808399999
  0
ARC
  5
4C
330
1D
100
AcDbEntity
  8
1
100
AcDbCircle
 10
22.362032708
 20
16.835812553
 30
0.0
 40
10.228496807
100
AcDbArc
 50
274.871981834
 51
282.227894519
  0
ARC
  5
4D
330
1D
100
AcDbEntity
  8
1
100
AcDbCircle
 10
23.13769267
 20
13.026117006
 30
0.0
 40
6.341134994
100
AcDbArc
 50
282.669136784
 51
283.864136464
  0
LINE
  5
4E
330
1D
100
AcDbEntity
  8
1
100
AcDbLine
 10
17.70000458
 20
6.97576904
 30
0.0
 11
17.70000458
 21
5.6000061
 31
0.0
  0
ARC
  5
4F
330
1D
100
AcDbEntity
  8
1
100
AcDbCircle
 10
18.20000458
 20
6.97576904
 30
0.0
 40
0.5
100
AcDbArc
 50
90.0
 51
180.0
  0
ARC
  5
50
330
1D
100
AcDbEntity
  8
3
100
AcDbCircle
 10
26.66999817
 20
4.94343567
 30
0.0
 40
0.19999695
100
AcDbArc
 50
217.00134277
 51
236.99932861
  0
LINE
  5
51
330
1D
100
AcDbEntity
  8
1
  6
Continuous
370
    50
100
AcDbLine
 10
17.42955017
 20
-5.59999084
 30
0.0
 11
20.66752625
 21
-6.46760559
 31
0.0
  0
LINE
  5
52
330
1D
100
AcDbEntity
  8
1
  6
Continuous
370
    50
100
AcDbLine
 10
25.97045898
 20
-5.59999084
 30
0.0
 11
22.73247528
 21
-6.46760559
 31
0.0
  0
LINE
  5
53
330
1D
100
AcDbEntity
  8
1
  6
Continuous
370
    50
100
AcDbLine
 10
22.71437073
 20
-6.47000122
 30
0.0
 11
20.68563843
 21
-6.47000122
 31
0.0
  0
CIRCLE
  5
54
330
1D
100
AcDbEntity
  8
1
  6
Continuous
370
    50
100
AcDbCircle
 10
21.70000458
 20
0.0
 30
0.0
 40
1.57000005
  0
LINE
  5
55
330
1D
100
AcDbEntity
  8
1
  6
Continuous
370
    50
100
AcDbLine
 10
22.45001221
 20
-0.43301392
 30
0.0
 11
22.45001221
 21
0.43299866
 31
0.0
  0
LINE
  5
56
330
1D
100
AcDbEntity
  8
1
  6
Continuous
370
    50
100
AcDbLine
 10
21.70001221
 20
-0.86602783
 30
0.0
 11
22.45001221
 21
-0.43301392
 31
0.0
  0
LINE
  5
57
330
1D
100
AcDbEntity
  8
1
  6
Continuous
370
    50
100
AcDbLine
 10
20.95000458
 20
-0.43301392
 30
0.0
 11
21.69999695
 21
-0.86602783
 31
0.0
  0
LINE
  5
58
330
1D
100
AcDbEntity
  8
1
  6
Continuous
370
    50
100
AcDbLine
 10
20.94999695
 20
0.43301392
 30
0.0
 11
20.94999695
 21
-0.43301392
 31
0.0
  0
LINE
  5
59
330
1D
100
AcDbEntity
  8
1
  6
Continuous
370
    50
100
AcDbLine
 10
21.69999695
 20
0.86602783
 30
0.0
 11
20.94999695
 21
0.43301392
 31
0.0
  0
LINE
  5
5A
330
1D
100
AcDbEntity
  8
1
  6
Continuous
370
    50
100
AcDbLine
 10
22.45000458
 20
0.43301392
 30
0.0
 11
21.70001221
 21
0.86602783
 31
0.0
  0
LINE
  5
5B
330
1D
100
AcDbEntity
  8
1
  6
Continuous
370
    50
100
AcDbLine
 10
0.0
 20
7.0
 30
0.0
 11
0.0
 21
-7.0
 31
0.0
  0
LINE
  5
5C
330
1D
100
AcDbEntity
  8
4
100
AcDbLine
 10
29.56529999
 20
0.0
 30
0.0
 11
0.0000000000000071
 21
0.0
 31
0.0
  0
LINE
  5
5D
330
1D
100
AcDbEntity
  8
1
  6
Continuous
370
    50
100
AcDbLine
 10
15.40000153
 20
7.0
 30
0.0
 11
0.0
 21
7.0
 31
0.0
  0
LINE
  5
5E
330
1D
100
AcDbEntity
  8
1
  6
Continuous
370
    50
100
AcDbLine
 10
15.40000153
 20
-7.0
 30
0.0
 11
0.0
 21
-7.0
 31
0.0
  0
LINE
  5
5F
330
1D
100
AcDbEntity
  8
1
  6
Continuous
370
    50
100
AcDbLine
 10
4.0
 20
3.6055603
 30
0.0
 11
4.0
 21
-3.60554504
 31
0.0
  0
LINE
  5
60
330
1D
100
AcDbEntity
  8
1
  6
Continuous
370
    50
100
AcDbLine
 10
11.0
 20
3.6055603
 30
0.0
 11
11.0
 21
-3.60554504
 31
0.0
  0
LINE
  5
61
330
1D
100
AcDbEntity
  8
1
  6
Continuous
370
    50
100
AcDbLine
 10
11.0
 20
3.6055603
 30
0.0
 11
4.0
 21
3.6055603
 31
0.0
  0
LINE
  5
62
330
1D
100
AcDbEntity
  8
1
  6
Continuous
370
    50
100
AcDbLine
 10
11.0
 20
-3.60554504
 30
0.0
 11
4.0
 21
-3.60554504
 31
0.0
  0
LINE
  5
63
330
1D
100
AcDbEntity
  8
1
  6
Continuous
370
    50
100
AcDbLine
 10
26.86491394
 20
-5.59999084
 30
0.0
 11
16.80000305
 21
-5.59999084
 31
0.0
  0
LINE
  5
64
330
1D
100
AcDbEntity
  8
1
  6
Continuous
370
    50
100
AcDbLine
 10
27.5
 20
4.5
 30
0.0
 11
27.5
 21
-4.5
 31
0.0
  0
LINE
  5
65
330
1D
100
AcDbEntity
  8
1
  6
Continuous
370
    50
100
AcDbLine
 10
27.5
 20
-4.5
 30
0.0
 11
26.86491394
 21
-5.59999084
 31
0.0
  0
LINE
  5
66
330
1D
100
AcDbEntity
  8
1
  6
Continuous
370
    50
100
AcDbLine
 10
26.05662537
 20
-5.59999084
 30
0.0
 11
26.05662537
 21
3.1436615
 31
0.0
  0
LINE
  5
67
330
1D
100
AcDbEntity
  8
1
  6
Continuous
370
    50
100
AcDbLine
 10
26.86491394
 20
5.6000061
 30
0.0
 11
16.80000305
 21
5.6000061
 31
0.0
  0
LINE
  5
68
330
1D
100
AcDbEntity
  8
SK4
100
AcDbLine
 10
21.70000458
 20
-7.47000122
 30
0.0
 11
21.70000458
 21
8.47576904
 31
0.0
  0
ARC
  5
69
330
1D
100
AcDbEntity
  8
1
  6
Continuous
370
    50
100
AcDbCircle
 10
29.31915283
 20
6.93258667
 30
0.0
 40
5.0
100
AcDbArc
 50
195.45701599
 51
248.66436768
  0
LINE
  5
6A
330
1D
100
AcDbEntity
  8
1
  6
Continuous
370
    50
100
AcDbLine
 10
15.40000153
 20
-7.0
 30
0.0
 11
16.80000305
 21
-5.59999084
 31
0.0
  0
LINE
  5
6B
330
1D
100
AcDbEntity
  8
1
  6
Continuous
370
    50
100
AcDbLine
 10
15.40000153
 20
7.0
 30
0.0
 11
16.80000305
 21
5.6000061
 31
0.0
  0
LINE
  5
6C
330
1D
100
AcDbEntity
  8
1
  6
Continuous
370
    50
100
AcDbLine
 10
27.5
 20
4.5
 30
0.0
 11
26.86491394
 21
5.59999084
 31
0.0
  0
ARC
  5
6D
330
1D
100
AcDbEntity
  8
1
  6
Continuous
370
    50
100
AcDbCircle
 10
19.122385777
 20
3.70748724
 30
0.0
 40
0.69605691
100
AcDbArc
 50
195.474360745
 51
229.008536554
  0
ARC
  5
6E
330
1D
100
AcDbEntity
  8
1
  6
Continuous
370
    50
100
AcDbCircle
 10
19.397239851
 20
4.031504482
 30
0.0
 40
1.120928579
100
AcDbArc
 50
229.26800184
 51
253.728516778
  0
ARC
  5
6F
330
1D
100
AcDbEntity
  8
1
  6
Continuous
370
    50
100
AcDbCircle
 10
19.618590977
 20
4.726152987
 30
0.0
 40
1.849859129
100
AcDbArc
 50
253.175576427
 51
270.666643448
  0
ARC
  5
70
330
1D
100
AcDbEntity
  8
1
  6
Continuous
370
    50
100
AcDbCircle
 10
19.629762143
 20
5.318607164
 30
0.0
 40
2.442210033
100
AcDbArc
 50
270.242857806
 51
284.757101897
  0
ARC
  5
71
330
1D
100
AcDbEntity
  8
1
  6
Continuous
370
    50
100
AcDbCircle
 10
19.643807349
 20
5.322252519
 30
0.0
 40
2.442200631
100
AcDbArc
 50
284.416673915
 51
298.930918006
  0
ARC
  5
72
330
1D
100
AcDbEntity
  8
1
  6
Continuous
370
    50
100
AcDbCircle
 10
19.942359212
 20
4.81041855
 30
0.0
 40
1.849866486
100
AcDbArc
 50
298.506846308
 51
315.997913329
  0
ARC
  5
73
330
1D
100
AcDbEntity
  8
1
  6
Continuous
370
    50
100
AcDbCircle
 10
20.474246539
 20
4.311794385
 30
0.0
 40
1.120937989
100
AcDbArc
 50
315.444526417
 51
339.905066279
  0
ARC
  5
74
330
1D
100
AcDbEntity
  8
1
  6
Continuous
370
    50
100
AcDbCircle
 10
20.872196185
 20
4.162840927
 30
0.0
 40
0.696043914
100
AcDbArc
 50
340.1651582530001
 51
13.699307145
  0
ARC
  5
75
330
1D
100
AcDbEntity
  8
1
  6
Continuous
370
    50
100
AcDbCircle
 10
20.877614303
 20
4.141969601
 30
0.0
 40
0.69605682
100
AcDbArc
 50
15.474358502
 51
49.00853879700001
  0
ARC
  5
76
330
1D
100
AcDbEntity
  8
1
  6
Continuous
370
    50
100
AcDbCircle
 10
20.602760072
 20
3.817952119
 30
0.0
 40
1.120928772
100
AcDbArc
 50
49.268005166
 51
73.728515573
  0
ARC
  5
77
330
1D
100
AcDbEntity
  8
1
  6
Continuous
370
    50
100
AcDbCircle
 10
20.381409331
 20
3.123306193
 30
0.0
 40
1.849856743
100
AcDbArc
 50
73.175564026
 51
90.666653832
  0
ARC
  5
78
330
1D
100
AcDbEntity
  8
1
  6
Continuous
370
    50
100
AcDbCircle
 10
20.37023836
 20
2.530845808
 30
0.0
 40
2.442213853
100
AcDbArc
 50
90.24286921999999
 51
104.757090484
  0
ARC
  5
79
330
1D
100
AcDbEntity
  8
1
  6
Continuous
370
    50
100
AcDbCircle
 10
20.356192083
 20
2.527205702
 30
0.0
 40
2.442199103
100
AcDbArc
 50
104.41666935
 51
118.930922571
  0
ARC
  5
7A
330
1D
100
AcDbEntity
  8
1
  6
Continuous
370
    50
100
AcDbCircle
 10
20.057641374
 20
3.03903747
 30
0.0
 40
1.849867442
100
AcDbArc
 50
118.506850865
 51
135.997908772
  0
ARC
  5
7B
330
1D
100
AcDbEntity
  8
1
  6
Continuous
370
    50
100
AcDbCircle
 10
19.52575461
 20
3.537661677
 30
0.0
 40
1.120939318
100
AcDbArc
 50
135.444541145
 51
159.905051551
  0
ARC
  5
7C
330
1D
100
AcDbEntity
  8
1
  6
Continuous
370
    50
100
AcDbCircle
 10
19.127803155
 20
3.686615898
 30
0.0
 40
0.696043281
100
AcDbArc
 50
160.165142552
 51
193.699322847
  0
LINE
  5
7D
330
1D
100
AcDbEntity
  8
3
  6
DASH
370
    35
100
AcDbLine
 10
6.5
 20
3.0
 30
0.0
 11
0.0
 21
3.0
 31
0.0
  0
LINE
  5
7E
330
1D
100
AcDbEntity
  8
3
  6
DASH
370
    35
100
AcDbLine
 10
6.5
 20
-3.0
 30
0.0
 11
0.0
 21
-3.0
 31
0.0
  0
LINE
  5
7F
330
1D
100
AcDbEntity
  8
3
  6
DASH
370
    35
100
AcDbLine
 10
9.0
 20
2.5
 30
0.0
 11
0.0
 21
2.5
 31
0.0
  0
LINE
  5
80
330
1D
100
AcDbEntity
  8
3
  6
DASH
370
    35
100
AcDbLine
 10
9.0
 20
-2.5
 30
0.0
 11
0.0
 21
-2.5
 31
0.0
  0
LINE
  5
81
330
1D
100
AcDbEntity
  8
3
  6
DASH
370
    35
100
AcDbLine
 10
6.5
 20
3.0
 30
0.0
 11
6.5
 21
-3.0
 31
0.0
  0
LINE
  5
82
330
1D
100
AcDbEntity
  8
3
  6
DASH
370
    35
100
AcDbLine
 10
9.0
 20
2.5
 30
0.0
 11
9.0
 21
-2.5
 31
0.0
  0
LINE
  5
83
330
1D
100
AcDbEntity
  8
3
  6
DASH
370
    35
100
AcDbLine
 10
9.0
 20
-2.5
 30
0.0
 11
10.44337463
 21
0.0
 31
0.0
  0
LINE
  5
84
330
1D
100
AcDbEntity
  8
3
  6
DASH
370
    35
100
AcDbLine
 10
9.0
 20
2.5
 30
0.0
 11
10.44337463
 21
0.0
 31
0.0
  0
LINE
  5
85
330
1D
100
AcDbEntity
  8
3
  6
DASH
370
    35
100
AcDbLine
 10
6.5
 20
-3.0
 30
0.0
 11
8.36601257
 21
-2.5
 31
0.0
  0
LINE
  5
86
330
1D
100
AcDbEntity
  8
3
  6
DASH
370
    35
100
AcDbLine
 10
6.5
 20
3.0
 30
0.0
 11
8.36601257
 21
2.5
 31
0.0
  0
LINE
  5
87
330
1D
100
AcDbEntity
  8
3
  6
DASH
370
    35
100
AcDbLine
 10
17.70000458
 20
-5.59999084
 30
0.0
 11
17.70000458
 21
5.6000061
 31
0.0
  0
LINE
  5
88
330
1D
100
AcDbEntity
  8
3
  6
DASH
370
    35
100
AcDbLine
 10
25.70000458
 20
-5.59999084
 30
0.0
 11
25.70000458
 21
3.48269653
 31
0.0
  0
LINE
  5
89
330
1D
100
AcDbEntity
  8
SK4
100
AcDbLine
 10
9.72168732
 20
1.25
 30
0.0
 11
21.13336945
 21
4.21966553
 31
0.0
  0
LINE
  5
8A
330
1D
100
AcDbEntity
  8
3
  6
DASH
370
    35
100
AcDbLine
 10
9.20303345
 20
2.14834595
 30
0.0
 11
19.74815369
 21
4.89250183
 31
0.0
  0
LINE
  5
8B
330
1D
100
AcDbEntity
  8
3
  6
DASH
370
    35
100
AcDbLine
 10
10.24034882
 20
0.35165405
 30
0.0
 11
20.25184631
 21
2.95695496
 31
0.0
  0
LINE
  5
8D
330
1D
100
AcDbEntity
  8
2
  6
Continuous
370
    25
100
AcDbLine
 10
0.0
 20
16.0
 30
0.0
 11
0.0
 21
7.0
 31
0.0
  0
LINE
  5
8E
330
1D
100
AcDbEntity
  8
2
  6
Continuous
370
    25
100
AcDbLine
 10
0.0
 20
14.0
 30
0.0
 11
3.5
 21
14.45
 31
0.0
  0
LINE
  5
8F
330
1D
100
AcDbEntity
  8
2
  6
Continuous
370
    25
100
AcDbLine
 10
3.5
 20
14.45
 30
0.0
 11
3.5
 21
13.55
 31
0.0
  0
LINE
  5
90
330
1D
100
AcDbEntity
  8
2
  6
Continuous
370
    25
100
AcDbLine
 10
3.5
 20
13.55
 30
0.0
 11
0.0
 21
14.0
 31
0.0
  0
LINE
  5
91
330
1D
100
AcDbEntity
  8
2
  6
Continuous
370
    25
100
AcDbLine
 10
30.0
 20
15.999999998
 30
0.0
 11
30.0
 21
8.30000305
 31
0.0
  0
LINE
  5
92
330
1D
100
AcDbEntity
  8
2
  6
Continuous
370
    25
100
AcDbLine
 10
30.0
 20
13.999999998
 30
0.0
 11
26.5
 21
13.549999998
 31
0.0
  0
LINE
  5
93
330
1D
100
AcDbEntity
  8
2
  6
Continuous
370
    25
100
AcDbLine
 10
26.5
 20
13.549999998
 30
0.0
 11
26.5
 21
14.449999998
 31
0.0
  0
LINE
  5
94
330
1D
100
AcDbEntity
  8
2
  6
Continuous
370
    25
100
AcDbLine
 10
26.5
 20
14.449999998
 30
0.0
 11
30.0
 21
13.999999998
 31
0.0
  0
LINE
  5
95
330
1D
100
AcDbEntity
  8
2
  6
Continuous
370
    25
100
AcDbLine
 10
3.5
 20
14.0
 30
0.0
 11
26.5
 21
13.999999998
 31
0.0
  0
TEXT
  5
96
330
1D
100
AcDbEntity
  8
2
  6
Continuous
370
    25
100
AcDbText
 10
13.526718415
 20
15.499999999
 30
0.0
 40
3.5
  1
30
 50
359.999999997
  7
BMG_Text
100
AcDbText
  0
LINE
  5
97
330
1D
100
AcDbEntity
  8
2
  6
Continuous
370
    25
100
AcDbLine
 10
0.0
 20
-16.0
 30
0.0
 11
0.0
 21
-7.0
 31
0.0
  0
LINE
  5
98
330
1D
100
AcDbEntity
  8
2
  6
Continuous
370
    25
100
AcDbLine
 10
0.0
 20
-14.0
 30
0.0
 11
3.5
 21
-13.55
 31
0.0
  0
LINE
  5
99
330
1D
100
AcDbEntity
  8
2
  6
Continuous
370
    25
100
AcDbLine
 10
3.5
 20
-13.55
 30
0.0
 11
3.5
 21
-14.45
 31
0.0
  0
LINE
  5
9A
330
1D
100
AcDbEntity
  8
2
  6
Continuous
370
    25
100
AcDbLine
 10
3.5
 20
-14.45
 30
0.0
 11
0.0
 21
-14.0
 31
0.0
  0
LINE
  5
9B
330
1D
100
AcDbEntity
  8
2
  6
Continuous
370
    25
100
AcDbLine
 10
27.5
 20
-16.0
 30
0.0
 11
27.5
 21
-4.5
 31
0.0
  0
LINE
  5
9C
330
1D
100
AcDbEntity
  8
2
  6
Continuous
370
    25
100
AcDbLine
 10
27.5
 20
-14.0
 30
0.0
 11
24.0
 21
-14.45
 31
0.0
  0
LINE
  5
9D
330
1D
100
AcDbEntity
  8
2
  6
Continuous
370
    25
100
AcDbLine
 10
24.0
 20
-14.45
 30
0.0
 11
24.0
 21
-13.55
 31
0.0
  0
LINE
  5
9E
330
1D
100
AcDbEntity
  8
2
  6
Continuous
370
    25
100
AcDbLine
 10
24.0
 20
-13.55
 30
0.0
 11
27.5
 21
-14.0
 31
0.0
  0
LINE
  5
9F
330
1D
100
AcDbEntity
  8
2
  6
Continuous
370
    25
100
AcDbLine
 10
3.5
 20
-14.0
 30
0.0
 11
24.0
 21
-14.0
 31
0.0
  0
TEXT
  5
A0
330
1D
100
AcDbEntity
  8
2
  6
Continuous
370
    25
100
AcDbText
 10
10.581405943
 20
-12.5
 30
0.0
 40
3.5
  1
27.5
  7
BMG_Text
100
AcDbText
  0
LINE
  5
A1
330
1D
100
AcDbEntity
  8
2
  6
Continuous
370
    25
100
AcDbLine
 10
-12.0
 20
-7.0
 30
0.0
 11
0.0
 21
-7.0
 31
0.0
  0
LINE
  5
A2
330
1D
100
AcDbEntity
  8
2
  6
Continuous
370
    25
100
AcDbLine
 10
-10.0
 20
-7.0
 30
0.0
 11
-10.45
 21
-3.5
 31
0.0
  0
LINE
  5
A3
330
1D
100
AcDbEntity
  8
2
  6
Continuous
370
    25
100
AcDbLine
 10
-10.45
 20
-3.5
 30
0.0
 11
-9.55
 21
-3.5
 31
0.0
  0
LINE
  5
A4
330
1D
100
AcDbEntity
  8
2
  6
Continuous
370
    25
100
AcDbLine
 10
-9.55
 20
-3.5
 30
0.0
 11
-10.0
 21
-7.0
 31
0.0
  0
LINE
  5
A5
330
1D
100
AcDbEntity
  8
2
  6
Continuous
370
    25
100
AcDbLine
 10
-12.0
 20
7.0
 30
0.0
 11
0.0
 21
7.0
 31
0.0
  0
LINE
  5
A6
330
1D
100
AcDbEntity
  8
2
  6
Continuous
370
    25
100
AcDbLine
 10
-10.0
 20
7.0
 30
0.0
 11
-9.55
 21
3.5
 31
0.0
  0
LINE
  5
A7
330
1D
100
AcDbEntity
  8
2
  6
Continuous
370
    25
100
AcDbLine
 10
-9.55
 20
3.5
 30
0.0
 11
-10.45
 21
3.5
 31
0.0
  0
LINE
  5
A8
330
1D
100
AcDbEntity
  8
2
  6
Continuous
370
    25
100
AcDbLine
 10
-10.45
 20
3.5
 30
0.0
 11
-10.0
 21
7.0
 31
0.0
  0
LINE
  5
A9
330
1D
100
AcDbEntity
  8
2
  6
Continuous
370
    25
100
AcDbLine
 10
-10.0
 20
-3.5
 30
0.0
 11
-10.0
 21
3.5
 31
0.0
  0
TEXT
  5
AA
330
1D
100
AcDbEntity
  8
2
  6
Continuous
370
    25
100
AcDbText
 10
-11.5
 20
-0.8831370959248553
 30
0.0
 40
3.5
  1
14
 50
90.0
  7
BMG_Text
100
AcDbText
  0
CIRCLE
  5
AB
330
1D
100
AcDbEntity
  8
2
  6
Continuous
370
    25
100
AcDbCircle
 10
-12.75
 20
-3.133137095924855
 30
0.0
 40
1.25
  0
LINE
  5
AC
330
1D
100
AcDbEntity
  8
2
  6
Continuous
370
    25
100
AcDbLine
 10
-11.5
 20
-4.383137095924855
 30
0.0
 11
-14.0
 21
-1.883137095924855
 31
0.0
  0
LINE
  5
AD
330
1D
100
AcDbEntity
  8
2
  6
Continuous
370
    25
100
AcDbLine
 10
-6.0
 20
-3.0
 30
0.0
 11
0.0
 21
-3.0
 31
0.0
  0
LINE
  5
AE
330
1D
100
AcDbEntity
  8
2
  6
Continuous
370
    25
100
AcDbLine
 10
-4.0
 20
-3.0
 30
0.0
 11
-4.45
 21
-6.5
 31
0.0
  0
LINE
  5
AF
330
1D
100
AcDbEntity
  8
2
  6
Continuous
370
    25
100
AcDbLine
 10
-4.45
 20
-6.5
 30
0.0
 11
-3.55
 21
-6.5
 31
0.0
  0
LINE
  5
B0
330
1D
100
AcDbEntity
  8
2
  6
Continuous
370
    25
100
AcDbLine
 10
-3.55
 20
-6.5
 30
0.0
 11
-4.0
 21
-3.0
 31
0.0
  0
LINE
  5
B1
330
1D
100
AcDbEntity
  8
2
  6
Continuous
370
    25
100
AcDbLine
 10
-4.0
 20
-6.5
 30
0.0
 11
-4.0
 21
-10.5
 31
0.0
  0
LINE
  5
B2
330
1D
100
AcDbEntity
  8
2
  6
Continuous
370
    25
100
AcDbLine
 10
-6.0
 20
3.0
 30
0.0
 11
0.0
 21
3.0
 31
0.0
  0
LINE
  5
B3
330
1D
100
AcDbEntity
  8
2
  6
Continuous
370
    25
100
AcDbLine
 10
-4.0
 20
3.0
 30
0.0
 11
-3.55
 21
6.5
 31
0.0
  0
LINE
  5
B4
330
1D
100
AcDbEntity
  8
2
  6
Continuous
370
    25
100
AcDbLine
 10
-3.55
 20
6.5
 30
0.0
 11
-4.45
 21
6.5
 31
0.0
  0
LINE
  5
B5
330
1D
100
AcDbEntity
  8
2
  6
Continuous
370
    25
100
AcDbLine
 10
-4.45
 20
6.5
 30
0.0
 11
-4.0
 21
3.0
 31
0.0
  0
LINE
  5
B6
330
1D
100
AcDbEntity
  8
2
  6
Continuous
370
    25
100
AcDbLine
 10
-4.0
 20
6.5
 30
0.0
 11
-4.0
 21
10.5
 31
0.0
  0
LINE
  5
B7
330
1D
100
AcDbEntity
  8
2
  6
Continuous
370
    25
100
AcDbLine
 10
-4.0
 20
-3.0
 30
0.0
 11
-4.0
 21
3.0
 31
0.0
  0
TEXT
  5
B8
330
1D
100
AcDbEntity
  8
2
  6
Continuous
370
    25
100
AcDbText
 10
-5.5
 20
-0.0444513393084804
 30
0.0
 40
3.5
  1
6
 50
90.0
  7
BMG_Text
100
AcDbText
  0
TEXT
  5
B9
330
1D
100
AcDbEntity
  8
2
  6
Continuous
370
    25
100
AcDbText
 10
-5.5
 20
-2.62382633930848
 30
0.0
 40
3.5
  1
M
 50
90.0
  7
BMG_Text
100
AcDbText
  0
LINE
  5
BA
330
1D
100
AcDbEntity
  8
2
  6
Continuous
370
    25
100
AcDbLine
 10
39.999999045
 20
8.500000446
 30
0.0
 11
29.80000305
 21
8.5
 31
0.0
  0
LINE
  5
BB
330
1D
100
AcDbEntity
  8
2
  6
Continuous
370
    25
100
AcDbLine
 10
37.999999045
 20
8.500000358
 30
0.0
 11
38.449999198
 21
5.000000378
 31
0.0
  0
LINE
  5
BC
330
1D
100
AcDbEntity
  8
2
  6
Continuous
370
    25
100
AcDbLine
 10
38.449999198
 20
5.000000378
 30
0.0
 11
37.549999198
 21
5.000000339
 31
0.0
  0
LINE
  5
BD
330
1D
100
AcDbEntity
  8
2
  6
Continuous
370
    25
100
AcDbLine
 10
37.549999198
 20
5.000000339
 30
0.0
 11
37.999999045
 21
8.500000358
 31
0.0
  0
LINE
  5
BE
330
1D
100
AcDbEntity
  8
2
  6
Continuous
370
    25
100
AcDbLine
 10
37.999999746
 20
-7.554499642
 30
0.0
 11
37.999999198
 21
5.000000358
 31
0.0
  0
CIRCLE
  5
BF
330
1D
100
AcDbEntity
  8
2
  6
Continuous
370
    25
100
AcDbCircle
 10
34.93577742197807
 20
-16.53378604725076
 30
0.0
 40
1.25
  0
LINE
  5
C0
330
1D
100
AcDbEntity
  8
2
  6
Continuous
370
    25
100
AcDbLine
 10
36.18577747697807
 20
-17.78378599325076
 30
0.0
 11
33.68577736697807
 21
-15.28378610225076
 31
0.0
  0
TEXT
  5
C1
330
1D
100
AcDbEntity
  8
2
  6
Continuous
370
    25
100
AcDbText
 10
36.18577732397807
 20
-14.28378599325076
 30
0.0
 40
3.5
  1
15-18.5
 50
90.00000250400001
  7
BMG_Text
100
AcDbText
  0
TEXT
  5
C2
330
1D
100
AcDbEntity
  8
SK6
  6
Continuous
370
    35
100
AcDbText
 10
-3.034969881579771
 20
-28.45233671571641
 30
0.0
 40
3.5
  1
310.020
  7
BMG_Text
100
AcDbText
  0
LINE
  5
165
330
1D
100
AcDbEntity
  8
3
100
AcDbLine
 10
26.51027632462789
 20
4.823070757669906
 30
0.0
 11
25.92480496710763
 21
5.6000061
 31
0.0
  0
LINE
  5
166
330
1D
100
AcDbEntity
  8
3
100
AcDbLine
 10
26.56107005868085
 20
4.775705390760544
 30
0.0
 11
27.5
 21
4.165958913089784
 31
0.0
  0
LINE
  5
16C
330
1D
100
AcDbEntity
  8
1
100
AcDbLine
 10
25.04059905172765
 20
6.773369778226147
 30
0.0
 11
25.92480496710763
 21
5.6000061
 31
0.0
  0
LINE
  5
16D
330
1D
100
AcDbEntity
  8
1
100
AcDbLine
 10
28.35081482
 20
3.61343384
 30
0.0
 11
27.5
 21
4.165958913089784
 31
0.0
  0
LINE
  5
16E
330
1D
100
AcDbEntity
  8
3
100
AcDbLine
 10
28.35081482
 20
3.61343384
 30
0.0
 11
28.70205702087584
 21
3.61343384
 31
0.0
  0
LINE
  5
16F
330
1D
100
AcDbEntity
  8
3
100
AcDbLine
 10
28.70205702087584
 20
3.61343384
 30
0.0
 11
29.67766677697341
 21
5.881672149441078
 31
0.0
  0
LINE
  5
170
330
1D
100
AcDbEntity
  8
3
100
AcDbLine
 10
29.67766677697341
 20
5.881672149441078
 30
0.0
 11
29.80000305
 21
8.319397157777587
 31
0.0
  0
LINE
  5
171
330
1D
100
AcDbEntity
  8
3
100
AcDbLine
 10
29.80000305
 20
8.319397157777587
 30
0.0
 11
27.33931781665519
 21
8.007202035826367
 31
0.0
  0
LINE
  5
172
330
1D
100
AcDbEntity
  8
3
100
AcDbLine
 10
27.33931781665519
 20
8.007202035826367
 30
0.0
 11
27.28535716302341
 21
8.18060093384704
 31
0.0
  0
LINE
  5
174
330
1D
100
AcDbEntity
  8
1
100
AcDbLine
 10
27.28535552247364
 20
8.18060009793116
 30
0.0
 11
25.10952576682352
 21
7.071940869218595
 31
0.0
  0
ARC
  5
175
330
1D
100
AcDbEntity
  8
1
100
AcDbCircle
 10
25.20032501
 20
6.893737789999999
 30
0.0
 40
0.2000021000000015
100
AcDbArc
 50
117.0000610400004
 51
217.0013427699992
  0
LINE
  5
176
330
1D
100
AcDbEntity
  8
1
100
AcDbLine
 10
25.04059905172765
 20
6.773369778226147
 30
0.0
 11
25.92480496710763
 21
5.6000061
 31
0.0
  0
LINE
  5
177
330
1D
100
AcDbEntity
  8
1
100
AcDbLine
 10
27.5
 20
4.165958913089784
 30
0.0
 11
28.60911077100686
 21
3.445696030623814
 31
0.0
  0
LWPOLYLINE
  5
1AF
330
1D
100
AcDbEntity
  8
INFTOTAL
100
AcDbPolyline
 90
        4
 70
     1
 43
0.0
 10
61.44128752855285
 20
24.66063388648483
 10
61.44128752855285
 20
-37.27373702449119
 10
-37.93764573834277
 20
-37.27373702449119
 10
-37.93764573834277
 20
24.66063388648483
  0
LINE
  5
1B2
330
1D
100
AcDbEntity
  8
NOCUT
100
AcDbLine
 10
27.5
 20
0.0
 30
0.0
 11
0.0
 21
0.0
 31
0.0
  0
LINE
  5
1B3
330
1D
100
AcDbEntity
  8
NOCUT
100
AcDbLine
 10
0.0
 20
0.0
 30
0.0
 11
0.0
 21
7.0
 31
0.0
  0
LINE
  5
1B4
330
1D
100
AcDbEntity
  8
NOCUT
100
AcDbLine
 10
0.0
 20
7.0
 30
0.0
 11
15.40000153
 21
7.0
 31
0.0
  0
LINE
  5
1B5
330
1D
100
AcDbEntity
  8
NOCUT
100
AcDbLine
 10
15.40000153
 20
7.0
 30
0.0
 11
16.80000305
 21
5.6000061
 31
0.0
  0
LINE
  5
1B6
330
1D
100
AcDbEntity
  8
NOCUT
100
AcDbLine
 10
16.80000305
 20
5.6000061
 30
0.0
 11
17.70000458
 21
5.6000061
 31
0.0
  0
LINE
  5
1B7
330
1D
100
AcDbEntity
  8
NOCUT
100
AcDbLine
 10
17.70000458
 20
5.6000061
 30
0.0
 11
17.70000458
 21
6.97576904
 31
0.0
  0
ARC
  5
1B8
330
1D
100
AcDbEntity
  8
NOCUT
100
AcDbCircle
 10
18.20000458
 20
6.975769039999999
 30
0.0
 40
0.5000000000000009
100
AcDbArc
 50
90.0
 51
179.9999999999999
  0
LINE
  5
1BD
330
1D
100
AcDbEntity
  8
NOCUT
100
AcDbLine
 10
18.20000458
 20
7.47576904
 30
0.0
 11
23.08679962
 21
7.47576904
 31
0.0
  0
LINE
  5
1BE
330
1D
100
AcDbEntity
  8
NOCUT
100
AcDbLine
 10
23.08679962
 20
7.47576904
 30
0.0
 11
26.79579163
 21
7.93115234
 31
0.0
  0
LINE
  5
1BF
330
1D
100
AcDbEntity
  8
NOCUT
100
AcDbLine
 10
26.79579163
 20
7.93115234
 30
0.0
 11
27.28535461
 21
8.18060303
 31
0.0
  0
LINE
  5
1C4
330
1D
100
AcDbEntity
  8
NOCUT
100
AcDbLine
 10
28.35081482
 20
3.61343384
 30
0.0
 11
27.5
 21
3.61343384
 31
0.0
  0
LINE
  5
1C5
330
1D
100
AcDbEntity
  8
NOCUT
100
AcDbLine
 10
27.5
 20
3.61343384
 30
0.0
 11
27.5
 21
0.0
 31
0.0
  0
LINE
  5
1DC
330
1D
100
AcDbEntity
  8
SK4
100
AcDbLine
 10
29.56529999
 20
0.0
 30
0.0
 11
-1.0
 21
0.0
 31
0.0
  0
LINE
  5
204
330
1D
100
AcDbEntity
  8
NOCUT
100
AcDbLine
 10
27.28535461
 20
8.18060303
 30
0.0
 11
27.33931781665519
 21
8.007202035826367
 31
0.0
  0
LINE
  5
205
330
1D
100
AcDbEntity
  8
NOCUT
100
AcDbLine
 10
27.33931781665519
 20
8.007202035826367
 30
0.0
 11
29.80000305
 21
8.319397157777587
 31
0.0
  0
LINE
  5
206
330
1D
100
AcDbEntity
  8
NOCUT
100
AcDbLine
 10
29.80000305
 20
8.319397157777587
 30
0.0
 11
29.67766677697341
 21
5.881672149441078
 31
0.0
  0
LINE
  5
207
330
1D
100
AcDbEntity
  8
NOCUT
100
AcDbLine
 10
29.67766677697341
 20
5.881672149441078
 30
0.0
 11
28.70205702087584
 21
3.61343384
 31
0.0
  0
LINE
  5
208
330
1D
100
AcDbEntity
  8
NOCUT
100
AcDbLine
 10
28.70205702087584
 20
3.61343384
 30
0.0
 11
28.35081482
 21
3.61343384
 31
0.0
  0
LINE
  5
279
330
1D
100
AcDbEntity
  8
4
100
AcDbLine
 10
21.13336945
 20
4.21966553
 30
0.0
 11
9.72168732
 21
1.25
 31
0.0
  0
LINE
  5
27A
330
1D
100
AcDbEntity
  8
4
100
AcDbLine
 10
21.70000458
 20
8.47576904
 30
0.0
 11
21.70000458
 21
-7.47000122
 31
0.0
  0
LINE
  5
27E
330
1D
100
AcDbEntity
  8
3
100
AcDbLine
 10
25.92480496710763
 20
5.6000061
 30
0.0
 11
26.51027632462789
 21
4.823070757669906
 31
0.0
  0
LINE
  5
280
330
1D
100
AcDbEntity
  8
3
100
AcDbLine
 10
27.5
 20
4.165958913089784
 30
0.0
 11
26.56107005868085
 21
4.775705390760544
 31
0.0
  0
ARC
  5
287
330
1D
100
AcDbEntity
  8
3
100
AcDbCircle
 10
27.90612793
 20
6.26905823
 30
0.0
 40
1.499986227077584
100
AcDbArc
 50
206.4895610078968
 51
244.4952610912831
  0
ARC
  5
2B9
102
{ACAD_REACTORS
330
2D9
102
}
330
1D
100
AcDbEntity
  8
CUT
  6
Continuous
370
    25
100
AcDbCircle
 10
29.80000305
 20
8.30000305
 30
0.0
 40
0.19999695
100
AcDbArc
 50
356.9998779299993
 51
97.0006713900007
  0
LINE
  5
2BA
102
{ACAD_REACTORS
330
2D9
102
}
330
1D
100
AcDbEntity
  8
CUT
  6
Continuous
370
    25
100
AcDbLine
 10
29.87191772
 20
5.850845339999999
 30
0.0
 11
29.99971771
 21
8.289550779999999
 31
0.0
  0
ARC
  5
2BB
330
1D
100
AcDbEntity
  8
CUT
100
AcDbCircle
 10
25.20032501
 20
6.893737789999999
 30
0.0
 40
0.2000021
100
AcDbArc
 50
117.0000610399996
 51
217.0013427700001
  0
ARC
  5
2BC
102
{ACAD_REACTORS
330
2D9
102
}
330
1D
100
AcDbEntity
  8
CUT
  6
Continuous
370
    25
100
AcDbCircle
 10
28.71804046999999
 20
3.613433839999999
 30
0.0
 40
0.20000413
100
AcDbArc
 50
237.0001220699998
 51
337.0009155300004
  0
LINE
  5
2BD
102
{ACAD_REACTORS
330
2D9
102
}
330
1D
100
AcDbEntity
  8
CUT
  6
Continuous
370
    25
100
AcDbLine
 10
29.85629272
 20
5.783172609999999
 30
0.0
 11
28.90214539
 21
3.535293579999999
 31
0.0
  0
LINE
  5
2BE
102
{ACAD_REACTORS
330
2D9
102
}
330
1D
100
AcDbEntity
  8
CUT
  6
Continuous
370
    25
100
AcDbLine
 10
29.77562714
 20
8.498519899999998
 30
0.0
 11
27.35177612
 21
8.20091248
 31
0.0
  0
LINE
  5
2BF
102
{ACAD_REACTORS
330
2D9
102
}
330
1D
100
AcDbEntity
  8
CUT
100
AcDbLine
 10
27.28535461
 20
8.18060303
 30
0.0
 11
25.10952759
 21
7.071929929999999
 31
0.0
  0
LINE
  5
2C0
330
1D
100
AcDbEntity
  8
CUT
100
AcDbLine
 10
25.04059905172766
 20
6.773369778226146
 30
0.0
 11
25.92480496710762
 21
5.600006099999999
 31
0.0
  0
LINE
  5
2C1
330
1D
100
AcDbEntity
  8
CUT
100
AcDbLine
 10
27.28535552247364
 20
8.180600097931158
 30
0.0
 11
25.10952576682353
 21
7.071940869218595
 31
0.0
  0
ARC
  5
2C2
102
{ACAD_REACTORS
330
2D9
102
}
330
1D
100
AcDbEntity
  8
CUT
100
AcDbCircle
 10
25.20032501
 20
6.893737789999999
 30
0.0
 40
0.2000021000000015
100
AcDbArc
 50
117.0000610399994
 51
217.0013427700003
  0
LINE
  5
2C3
102
{ACAD_REACTORS
330
2D9
102
}
330
1D
100
AcDbEntity
  8
CUT
100
AcDbLine
 10
25.04059905172766
 20
6.773369778226146
 30
0.0
 11
25.92480496710762
 21
5.600006099999999
 31
0.0
  0
LINE
  5
2C4
102
{ACAD_REACTORS
330
2D9
102
}
330
1D
100
AcDbEntity
  8
CUT
100
AcDbLine
 10
27.5
 20
4.165958913089783
 30
0.0
 11
28.60911077100686
 21
3.445696030623813
 31
0.0
  0
ARC
  5
2C5
102
{ACAD_REACTORS
330
2D9
102
}
330
1D
100
AcDbEntity
  8
1
100
AcDbCircle
 10
27.90612793
 20
6.269058229999999
 30
0.0
 40
1.499986227077585
100
AcDbArc
 50
244.495261091283
 51
206.4895610078969
  0
LINE
  5
2C6
102
{ACAD_REACTORS
330
2D9
102
}
330
1D
100
AcDbEntity
  8
CUT
100
AcDbLine
 10
27.5
 20
4.165958913089783
 30
0.0
 11
27.5
 21
4.499999999999999
 31
0.0
  0
LINE
  5
2C7
102
{ACAD_REACTORS
330
2D9
102
}
330
1D
100
AcDbEntity
  8
CUT
100
AcDbLine
 10
27.5
 20
4.499999999999999
 30
0.0
 11
27.2602552387729
 21
4.915246149927762
 31
0.0
  0
LINE
  5
2C8
102
{ACAD_REACTORS
330
2D9
102
}
330
1D
100
AcDbEntity
  8
CUT
100
AcDbLine
 10
26.56361679448864
 20
5.600012243202052
 30
0.0
 11
25.92480496710762
 21
5.600006099999999
 31
0.0
  0
ARC
  5
2C9
102
{ACAD_REACTORS
330
2D9
102
}
330
1D
100
AcDbEntity
  8
CUT
  6
Continuous
370
    25
100
AcDbCircle
 10
29.67221832
 20
5.861312869999999
 30
0.0
 40
0.19998378
100
AcDbArc
 50
336.9993896499992
 51
357.0006713899999
  0
ARC
  5
2CA
102
{ACAD_REACTORS
330
2D9
102
}
330
1D
100
AcDbEntity
  8
CUT
  6
Continuous
370
    25
100
AcDbCircle
 10
27.37615204
 20
8.002395629999999
 30
0.0
 40
0.2000021
100
AcDbArc
 50
96.99917603000073
 51
116.9986572299994
  0
HATCH
  5
2D9
330
1D
100
AcDbEntity
  8
7
100
AcDbHatch
 10
0.0
 20
0.0
 30
0.0
210
0.0
220
0.0
230
1.0
  2
ANSI31
 70
     0
 71
     1
 91
        1
 92
        7
 72
     1
 73
     1
 93
       15
 10
29.8719229359052
 20
5.850847103916466
 42
0.0
 10
29.9997238441226
 20
8.2895393896464
 42
0.4662949062785257
 10
29.7756271834666
 20
8.49851443372053
 42
0.0
 10
27.35177960763874
 20
8.200908591384012
 42
0.0874540884507581
 10
27.28535652476756
 20
8.18060145788528
 42
0.0
 10
25.10952667841176
 20
7.071935399609297
 42
0.4663258539178063
 10
25.04059773660518
 20
6.773371523427028
 42
0.0
 10
25.92480496710762
 20
5.600006099999999
 42
0.0
 10
26.56361679448864
 20
5.600012243202052
 42
-5.974851480454337
 10
27.2602552387729
 20
4.915246149927762
 42
0.0
 10
27.5
 20
4.499999999999998
 42
0.0
 10
27.5
 20
4.165958913089783
 42
0.0
 10
28.60911067983628
 20
3.445696089830513
 42
0.4663158041890179
 10
28.90214621580802
 20
3.535290101803821
 42
0.0
 10
29.85629812384851
 20
5.783171815483691
 42
0.0876432272122025
 97
       15
330
2BA
330
2B9
330
2BE
330
2CA
330
2BF
330
2C2
330
2C3
330
2C8
330
2C5
330
2C7
330
2C6
330
2C4
330
2BC
330
2BD
330
2C9
 75
     0
 76
     1
 52
0.0
 41
1.0
 77
     0
 78
     1
 53
45.0
 43
-17.34803644528213
 44
1.274982403080154
 45
-0.0883883476483184
 46
0.0883883476483184
 79
     0
 47
0.0
 98
        1
 10
28.79621868825507
 20
7.772401211979092
1001
ACAD
1010
0.0
1020
0.0
1030
0.0
  0
ENDSEC
  0
SECTION
  2
OBJECTS
  0
DICTIONARY
  5
C
330
0
100
AcDbDictionary
281
     1
  3
ACAD_DETAILVIEWSTYLE
350
188
  3
ACAD_GROUP
350
D
  3
ACAD_LAYOUT
350
1A
  3
ACAD_MLINESTYLE
350
17
  3
ACAD_PLOTSETTINGS
350
19
  3
ACAD_PLOTSTYLENAME
350
E
  3
ACAD_SCALELIST
350
CA
  3
ACAD_SECTIONVIEWSTYLE
350
189
  3
AcDbVariableDictionary
350
10D
  3
APPDATA
350
15B
  3
DWGPROPS
350
2E5
  0
DICTIONARY
  5
15C
330
2
100
AcDbDictionary
280
     1
281
     1
  3
ACAD_LAYERSTATES
360
15D
  3
ACLYDICTIONARY
360
2DF
  0
DICTIONARY
  5
2CE
330
1D
100
AcDbDictionary
280
     1
281
     1
  3
ACAD_SORTENTS
360
2CF
  0
DICTIONARY
  5
188
102
{ACAD_REACTORS
330
C
102
}
330
C
100
AcDbDictionary
281
     1
  0
DICTIONARY
  5
D
102
{ACAD_REACTORS
330
C
102
}
330
C
100
AcDbDictionary
281
     1
  0
DICTIONARY
  5
1A
102
{ACAD_REACTORS
330
C
102
}
330
C
100
AcDbDictionary
281
     1
  3
Layout1
350
1C
  3
Model
350
1E
  0
DICTIONARY
  5
17
102
{ACAD_REACTORS
330
C
102
}
330
C
100
AcDbDictionary
281
     1
  3
Standard
350
18
  0
DICTIONARY
  5
19
102
{ACAD_REACTORS
330
C
102
}
330
C
100
AcDbDictionary
281
     1
  0
ACDBDICTIONARYWDFLT
  5
E
102
{ACAD_REACTORS
330
C
102
}
330
C
100
AcDbDictionary
281
     1
  3
Normal
350
F
100
AcDbDictionaryWithDefault
340
F
  0
DICTIONARY
  5
CA
102
{ACAD_REACTORS
330
C
102
}
330
C
100
AcDbDictionary
281
     1
  3
A0
350
CB
  3
A1
350
CC
  3
A2
350
CD
  3
A3
350
CE
  3
A4
350
CF
  3
A5
350
D0
  3
A6
350
D1
  3
A7
350
D2
  3
A8
350
D3
  3
A9
350
D4
  3
B0
350
D5
  3
B1
350
D6
  3
B2
350
D7
  3
B3
350
D8
  3
B4
350
D9
  3
B5
350
DA
  3
B6
350
DB
  3
B7
350
DC
  3
B8
350
DD
  3
B9
350
DE
  3
C0
350
DF
  3
C1
350
E0
  3
C2
350
E1
  3
C3
350
E2
  3
C4
350
E3
  3
C5
350
E4
  3
C6
350
E5
  3
C7
350
E6
  3
C8
350
E7
  3
C9
350
E8
  3
D0
350
E9
  3
D1
350
EA
  3
D2
350
EB
  0
DICTIONARY
  5
189
102
{ACAD_REACTORS
330
C
102
}
330
C
100
AcDbDictionary
281
     1
  0
DICTIONARY
  5
10D
102
{ACAD_REACTORS
330
C
102
}
330
C
100
AcDbDictionary
281
     1
  3
DIMASSOC
350
111
  3
HIDETEXT
350
112
  0
DICTIONARY
  5
15B
102
{ACAD_REACTORS
330
C
102
}
330
C
100
AcDbDictionary
281
     1
  0
XRECORD
  5
2E5
102
{ACAD_REACTORS
330
C
102
}
330
C
100
AcDbXrecord
280
     1
  1
DWGPROPS COOKIE
  2

  3

  4

  6

  7

  8
matthias.ochs
  9

300
=
301
=
302
=
303
=
304
=
305
=
306
=
307
=
308
=
309
=
 40
0.0
 41
2458327.461048658
 42
2458589.503017164
  1

 90
        0
  0
DICTIONARY
  5
15D
102
{ACAD_REACTORS
330
15C
102
}
330
15C
100
AcDbDictionary
281
     1
  0
DICTIONARY
  5
2DF
102
{ACAD_REACTORS
330
15C
102
}
330
15C
100
AcDbDictionary
281
     1
1001
ACAD
1000
<All
  0
SORTENTSTABLE
  5
2CF
102
{ACAD_REACTORS
330
2CE
102
}
330
2CE
100
AcDbSortentsTable
330
1D
331
0
  5
40
331
29
  5
30
331
2A
  5
31
331
2B
  5
32
331
2E
  5
33
331
2F
  5
34
331
30
  5
35
331
31
  5
38
331
32
  5
39
331
33
  5
3A
331
34
  5
3B
331
35
  5
3C
331
38
  5
3D
331
39
  5
3E
331
3A
  5
3F
331
3C
  5
41
331
3D
  5
42
331
3E
  5
43
331
3F
  5
44
331
40
  5
45
331
41
  5
46
331
42
  5
47
331
43
  5
48
331
44
  5
49
331
45
  5
4A
331
46
  5
4B
331
47
  5
4C
331
48
  5
4D
331
49
  5
4E
331
4A
  5
4F
331
4B
  5
50
331
4C
  5
51
331
4D
  5
52
331
4E
  5
53
331
4F
  5
54
331
50
  5
55
331
51
  5
56
331
52
  5
57
331
53
  5
58
331
54
  5
59
331
55
  5
5A
331
56
  5
5B
331
57
  5
5C
331
58
  5
5D
331
59
  5
5E
331
5A
  5
5F
331
5B
  5
60
331
5C
  5
61
331
5D
  5
62
331
5E
  5
63
331
5F
  5
64
331
60
  5
65
331
61
  5
66
331
62
  5
67
331
63
  5
68
331
64
  5
69
331
65
  5
6A
331
66
  5
6B
331
67
  5
6C
331
68
  5
6D
331
69
  5
6E
331
6A
  5
6F
331
6B
  5
70
331
6C
  5
71
331
6D
  5
72
331
6E
  5
73
331
6F
  5
74
331
70
  5
75
331
71
  5
76
331
72
  5
77
331
73
  5
78
331
74
  5
79
331
75
  5
7A
331
76
  5
7B
331
77
  5
7C
331
78
  5
7D
331
79
  5
7E
331
7A
  5
7F
331
7B
  5
80
331
7C
  5
81
331
7D
  5
82
331
7E
  5
83
331
7F
  5
84
331
80
  5
85
331
81
  5
86
331
82
  5
87
331
83
  5
88
331
84
  5
89
331
85
  5
8A
331
86
  5
8B
331
87
  5
8D
331
88
  5
8E
331
89
  5
8F
331
8A
  5
90
331
8B
  5
91
331
8D
  5
92
331
8E
  5
93
331
8F
  5
94
331
90
  5
95
331
91
  5
96
331
92
  5
97
331
93
  5
98
331
94
  5
99
331
95
  5
9A
331
96
  5
9B
331
97
  5
9C
331
98
  5
9D
331
99
  5
9E
331
9A
  5
9F
331
9B
  5
A0
331
9C
  5
A1
331
9D
  5
A2
331
9E
  5
A3
331
9F
  5
A4
331
A0
  5
A5
331
A1
  5
A6
331
A2
  5
A7
331
A3
  5
A8
331
A4
  5
A9
331
A5
  5
AA
331
A6
  5
AB
331
A7
  5
AC
331
A8
  5
AD
331
A9
  5
AE
331
AA
  5
AF
331
AB
  5
B0
331
AC
  5
B1
331
AD
  5
B2
331
AE
  5
B3
331
AF
  5
B4
331
B0
  5
B5
331
B1
  5
B6
331
B2
  5
B7
331
B3
  5
B8
331
B4
  5
B9
331
B5
  5
BA
331
B6
  5
BB
331
B7
  5
BC
331
B8
  5
BD
331
B9
  5
BE
331
BA
  5
BF
331
BB
  5
C0
331
BC
  5
C1
331
BD
  5
C2
331
BE
  5
165
331
BF
  5
166
331
C0
  5
16C
331
C1
  5
16D
331
C2
  5
16E
331
165
  5
16F
331
166
  5
170
331
16C
  5
171
331
16D
  5
172
331
16E
  5
174
331
16F
  5
175
331
170
  5
176
331
171
  5
177
331
172
  5
17A
331
174
  5
1AF
331
175
  5
1B2
331
176
  5
1B3
331
177
  5
1B4
331
1AF
  5
1B6
331
1B2
  5
1B7
331
1B3
  5
1B8
331
1B4
  5
1BD
331
1B5
  5
1BE
331
1B6
  5
1BF
331
1B7
  5
1C4
331
1B8
  5
1C5
331
1BD
  5
1DC
331
1BE
  5
204
331
1BF
  5
205
331
1C4
  5
206
331
1C5
  5
207
331
1DC
  5
208
331
204
  5
279
331
205
  5
27A
331
206
  5
27E
331
207
  5
280
331
208
  5
285
331
279
  5
287
331
27A
  5
2B6
331
27E
  5
2B7
331
280
  5
2B8
331
287
  5
2BA
331
2B9
  5
2C4
331
2BA
  5
2C5
331
2BB
  5
2C6
331
2BC
  5
2C7
331
2BD
  5
2C8
331
2BE
  5
2C9
331
2BF
  5
2CA
331
2C0
  5
2CD
331
2C1
  5
2D0
331
2C2
  5
2D1
331
2C3
  5
2D2
331
2C4
  5
2D3
331
2C5
  5
2D4
331
2C6
  5
2D5
331
2C7
  5
2D6
331
2C8
  5
2D7
331
2C9
  5
2D8
331
2CA
  5
2D9
331
2D9
  5
2C3
  0
LAYOUT
  5
1C
102
{ACAD_REACTORS
330
1A
102
}
330
1A
100
AcDbPlotSettings
  1

  2
none_device
  4

  6

 40
0.0
 41
0.0
 42
0.0
 43
0.0
 44
0.0
 45
0.0
 46
0.0
 47
0.0
 48
0.0
 49
0.0
140
0.0
141
0.0
142
1.0
143
1.0
 70
   688
 72
     0
 73
     0
 74
     5
  7

 75
    16
147
1.0
148
0.0
149
0.0
100
AcDbLayout
  1
Layout1
 70
     1
 71
     1
 10
0.0
 20
0.0
 11
12.0
 21
9.0
 12
0.0
 22
0.0
 32
0.0
 14
1.000000000000000E+20
 24
1.000000000000000E+20
 34
1.000000000000000E+20
 15
-1.000000000000000E+20
 25
-1.000000000000000E+20
 35
-1.000000000000000E+20
146
0.0
 13
0.0
 23
0.0
 33
0.0
 16
1.0
 26
0.0
 36
0.0
 17
0.0
 27
1.0
 37
0.0
 76
     0
330
1B
  0
LAYOUT
  5
1E
102
{ACAD_REACTORS
330
1A
102
}
330
1A
100
AcDbPlotSettings
  1

  2
none_device
  4

  6

 40
0.0
 41
0.0
 42
0.0
 43
0.0
 44
0.0
 45
0.0
 46
0.0
 47
0.0
 48
0.0
 49
0.0
140
0.0
141
0.0
142
1.0
143
1.0
 70
  1712
 72
     0
 73
     0
 74
     0
  7

 75
     0
147
1.0
148
0.0
149
0.0
100
AcDbLayout
  1
Model
 70
     1
 71
     0
 10
0.0
 20
0.0
 11
12.0
 21
9.0
 12
0.0
 22
0.0
 32
0.0
 14
-37.93764573834277
 24
-37.27373702449119
 34
0.0
 15
61.44128752855285
 25
24.66063388648483
 35
0.0
146
0.0
 13
0.0
 23
0.0
 33
0.0
 16
1.0
 26
0.0
 36
0.0
 17
0.0
 27
1.0
 37
0.0
 76
     0
330
1D
331
C3
  0
MLINESTYLE
  5
18
102
{ACAD_REACTORS
330
17
102
}
330
17
100
AcDbMlineStyle
  2
Standard
 70
     0
  3

 62
   256
 51
90.0
 52
90.0
 71
     2
 49
0.5
 62
   256
  6
BYLAYER
 49
-0.5
 62
   256
  6
BYLAYER
  0
ACDBPLACEHOLDER
  5
F
102
{ACAD_REACTORS
330
E
102
}
330
E
  0
SCALE
  5
CB
102
{ACAD_REACTORS
330
CA
102
}
330
CA
100
AcDbScale
 70
     0
300
1:1
140
1.0
141
1.0
290
     1
  0
SCALE
  5
CC
102
{ACAD_REACTORS
330
CA
102
}
330
CA
100
AcDbScale
 70
     0
300
1:2
140
1.0
141
2.0
290
     0
  0
SCALE
  5
CD
102
{ACAD_REACTORS
330
CA
102
}
330
CA
100
AcDbScale
 70
     0
300
1:4
140
1.0
141
4.0
290
     0
  0
SCALE
  5
CE
102
{ACAD_REACTORS
330
CA
102
}
330
CA
100
AcDbScale
 70
     0
300
1:5
140
1.0
141
5.0
290
     0
  0
SCALE
  5
CF
102
{ACAD_REACTORS
330
CA
102
}
330
CA
100
AcDbScale
 70
     0
300
1:8
140
1.0
141
8.0
290
     0
  0
SCALE
  5
D0
102
{ACAD_REACTORS
330
CA
102
}
330
CA
100
AcDbScale
 70
     0
300
1:10
140
1.0
141
10.0
290
     0
  0
SCALE
  5
D1
102
{ACAD_REACTORS
330
CA
102
}
330
CA
100
AcDbScale
 70
     0
300
1:16
140
1.0
141
16.0
290
     0
  0
SCALE
  5
D2
102
{ACAD_REACTORS
330
CA
102
}
330
CA
100
AcDbScale
 70
     0
300
1:20
140
1.0
141
20.0
290
     0
  0
SCALE
  5
D3
102
{ACAD_REACTORS
330
CA
102
}
330
CA
100
AcDbScale
 70
     0
300
1:30
140
1.0
141
30.0
290
     0
  0
SCALE
  5
D4
102
{ACAD_REACTORS
330
CA
102
}
330
CA
100
AcDbScale
 70
     0
300
1:40
140
1.0
141
40.0
290
     0
  0
SCALE
  5
D5
102
{ACAD_REACTORS
330
CA
102
}
330
CA
100
AcDbScale
 70
     0
300
1:50
140
1.0
141
50.0
290
     0
  0
SCALE
  5
D6
102
{ACAD_REACTORS
330
CA
102
}
330
CA
100
AcDbScale
 70
     0
300
1:100
140
1.0
141
100.0
290
     0
  0
SCALE
  5
D7
102
{ACAD_REACTORS
330
CA
102
}
330
CA
100
AcDbScale
 70
     0
300
2:1
140
2.0
141
1.0
290
     0
  0
SCALE
  5
D8
102
{ACAD_REACTORS
330
CA
102
}
330
CA
100
AcDbScale
 70
     0
300
4:1
140
4.0
141
1.0
290
     0
  0
SCALE
  5
D9
102
{ACAD_REACTORS
330
CA
102
}
330
CA
100
AcDbScale
 70
     0
300
8:1
140
8.0
141
1.0
290
     0
  0
SCALE
  5
DA
102
{ACAD_REACTORS
330
CA
102
}
330
CA
100
AcDbScale
 70
     0
300
10:1
140
10.0
141
1.0
290
     0
  0
SCALE
  5
DB
102
{ACAD_REACTORS
330
CA
102
}
330
CA
100
AcDbScale
 70
     0
300
100:1
140
100.0
141
1.0
290
     0
  0
SCALE
  5
DC
102
{ACAD_REACTORS
330
CA
102
}
330
CA
100
AcDbScale
 70
     0
300
1/128" = 1'-0"
140
0.0078125
141
12.0
290
     0
  0
SCALE
  5
DD
102
{ACAD_REACTORS
330
CA
102
}
330
CA
100
AcDbScale
 70
     0
300
1/64" = 1'-0"
140
0.015625
141
12.0
290
     0
  0
SCALE
  5
DE
102
{ACAD_REACTORS
330
CA
102
}
330
CA
100
AcDbScale
 70
     0
300
1/32" = 1'-0"
140
0.03125
141
12.0
290
     0
  0
SCALE
  5
DF
102
{ACAD_REACTORS
330
CA
102
}
330
CA
100
AcDbScale
 70
     0
300
1/16" = 1'-0"
140
0.0625
141
12.0
290
     0
  0
SCALE
  5
E0
102
{ACAD_REACTORS
330
CA
102
}
330
CA
100
AcDbScale
 70
     0
300
3/32" = 1'-0"
140
0.09375
141
12.0
290
     0
  0
SCALE
  5
E1
102
{ACAD_REACTORS
330
CA
102
}
330
CA
100
AcDbScale
 70
     0
300
1/8" = 1'-0"
140
0.125
141
12.0
290
     0
  0
SCALE
  5
E2
102
{ACAD_REACTORS
330
CA
102
}
330
CA
100
AcDbScale
 70
     0
300
3/16" = 1'-0"
140
0.1875
141
12.0
290
     0
  0
SCALE
  5
E3
102
{ACAD_REACTORS
330
CA
102
}
330
CA
100
AcDbScale
 70
     0
300
1/4" = 1'-0"
140
0.25
141
12.0
290
     0
  0
SCALE
  5
E4
102
{ACAD_REACTORS
330
CA
102
}
330
CA
100
AcDbScale
 70
     0
300
3/8" = 1'-0"
140
0.375
141
12.0
290
     0
  0
SCALE
  5
E5
102
{ACAD_REACTORS
330
CA
102
}
330
CA
100
AcDbScale
 70
     0
300
1/2" = 1'-0"
140
0.5
141
12.0
290
     0
  0
SCALE
  5
E6
102
{ACAD_REACTORS
330
CA
102
}
330
CA
100
AcDbScale
 70
     0
300
3/4" = 1'-0"
140
0.75
141
12.0
290
     0
  0
SCALE
  5
E7
102
{ACAD_REACTORS
330
CA
102
}
330
CA
100
AcDbScale
 70
     0
300
1" = 1'-0"
140
1.0
141
12.0
290
     0
  0
SCALE
  5
E8
102
{ACAD_REACTORS
330
CA
102
}
330
CA
100
AcDbScale
 70
     0
300
1-1/2" = 1'-0"
140
1.5
141
12.0
290
     0
  0
SCALE
  5
E9
102
{ACAD_REACTORS
330
CA
102
}
330
CA
100
AcDbScale
 70
     0
300
3" = 1'-0"
140
3.0
141
12.0
290
     0
  0
SCALE
  5
EA
102
{ACAD_REACTORS
330
CA
102
}
330
CA
100
AcDbScale
 70
     0
300
6" = 1'-0"
140
6.0
141
12.0
290
     0
  0
SCALE
  5
EB
102
{ACAD_REACTORS
330
CA
102
}
330
CA
100
AcDbScale
 70
     0
300
1'-0" = 1'-0"
140
12.0
141
12.0
290
     0
  0
DICTIONARYVAR
  5
111
102
{ACAD_REACTORS
330
10D
102
}
330
10D
100
DictionaryVariables
280
     0
  1
2
  0
DICTIONARYVAR
  5
112
102
{ACAD_REACTORS
330
10D
102
}
330
10D
100
DictionaryVariables
280
     0
  1
1
  0
ENDSEC
  0
EOF
