  0
SECTION
  2
HEADER
  9
$ACADVER
  1
AC1015
  9
$ACADMAINTVER
 70
     6
  9
$DWGCODEPAGE
  3
ANSI_1252
  9
$INSBASE
 10
0.0
 20
0.0
 30
0.0
  9
$EXTMIN
 10
-43.74229079319486
 20
-30.9752375945637
 30
0.0
  9
$EXTMAX
 10
52.83932738280983
 20
33.72968886817831
 30
0.0
  9
$LIMMIN
 10
-43.610231132
 20
-23.191051941
  9
$LIMMAX
 10
51.692807544
 20
25.860230778
  9
$ORTHOMODE
 70
     0
  9
$REGENMODE
 70
     1
  9
$FILLMODE
 70
     1
  9
$QTEXTMODE
 70
     0
  9
$MIRRTEXT
 70
     1
  9
$LTSCALE
 40
1.0
  9
$ATTMODE
 70
     1
  9
$TEXTSIZE
 40
0.2
  9
$TRACEWID
 40
0.05
  9
$TEXTSTYLE
  7
Standard
  9
$CLAYER
  8
SK1
  9
$CELTYPE
  6
ByLayer
  9
$CECOLOR
 62
   256
  9
$CELTSCALE
 40
1.0
  9
$DISPSILH
 70
     0
  9
$DIMSCALE
 40
1.0
  9
$DIMASZ
 40
0.18
  9
$DIMEXO
 40
0.0625
  9
$DIMDLI
 40
0.38
  9
$DIMRND
 40
0.0
  9
$DIMDLE
 40
0.0
  9
$DIMEXE
 40
0.18
  9
$DIMTP
 40
0.0
  9
$DIMTM
 40
0.0
  9
$DIMTXT
 40
0.18
  9
$DIMCEN
 40
0.09
  9
$DIMTSZ
 40
0.0
  9
$DIMTOL
 70
     0
  9
$DIMLIM
 70
     0
  9
$DIMTIH
 70
     1
  9
$DIMTOH
 70
     1
  9
$DIMSE1
 70
     0
  9
$DIMSE2
 70
     0
  9
$DIMTAD
 70
     0
  9
$DIMZIN
 70
     0
  9
$DIMBLK
  1

  9
$DIMASO
 70
     1
  9
$DIMSHO
 70
     1
  9
$DIMPOST
  1

  9
$DIMAPOST
  1

  9
$DIMALT
 70
     0
  9
$DIMALTD
 70
     2
  9
$DIMALTF
 40
25.4
  9
$DIMLFAC
 40
1.0
  9
$DIMTOFL
 70
     0
  9
$DIMTVP
 40
0.0
  9
$DIMTIX
 70
     0
  9
$DIMSOXD
 70
     0
  9
$DIMSAH
 70
     0
  9
$DIMBLK1
  1

  9
$DIMBLK2
  1

  9
$DIMSTYLE
  2
Standard
  9
$DIMCLRD
 70
     0
  9
$DIMCLRE
 70
     0
  9
$DIMCLRT
 70
     0
  9
$DIMTFAC
 40
1.0
  9
$DIMGAP
 40
0.09
  9
$DIMJUST
 70
     0
  9
$DIMSD1
 70
     0
  9
$DIMSD2
 70
     0
  9
$DIMTOLJ
 70
     1
  9
$DIMTZIN
 70
     0
  9
$DIMALTZ
 70
     0
  9
$DIMALTTZ
 70
     0
  9
$DIMUPT
 70
     0
  9
$DIMDEC
 70
     4
  9
$DIMTDEC
 70
     4
  9
$DIMALTU
 70
     2
  9
$DIMALTTD
 70
     2
  9
$DIMTXSTY
  7
Standard
  9
$DIMAUNIT
 70
     0
  9
$DIMADEC
 70
     0
  9
$DIMALTRND
 40
0.0
  9
$DIMAZIN
 70
     0
  9
$DIMDSEP
 70
    46
  9
$DIMATFIT
 70
     3
  9
$DIMFRAC
 70
     0
  9
$DIMLDRBLK
  1

  9
$DIMLUNIT
 70
     2
  9
$DIMLWD
 70
    -2
  9
$DIMLWE
 70
    -2
  9
$DIMTMOVE
 70
     2
  9
$LUNITS
 70
     2
  9
$LUPREC
 70
     4
  9
$SKETCHINC
 40
0.1
  9
$FILLETRAD
 40
0.5
  9
$AUNITS
 70
     2
  9
$AUPREC
 70
     0
  9
$MENU
  1
.
  9
$ELEVATION
 40
0.0
  9
$PELEVATION
 40
0.0
  9
$THICKNESS
 40
0.0
  9
$LIMCHECK
 70
     0
  9
$CHAMFERA
 40
0.5
  9
$CHAMFERB
 40
0.5
  9
$CHAMFERC
 40
1.0
  9
$CHAMFERD
 40
0.0
  9
$SKPOLY
 70
     0
  9
$TDCREATE
 40
2458327.549311331
  9
$TDUCREATE
 40
2458327.465977998
  9
$TDUPDATE
 40
2458589.585794687
  9
$TDUUPDATE
 40
2458589.502461354
  9
$TDINDWG
 40
0.014605081
  9
$TDUSRTIMER
 40
0.0002578356
  9
$USRTIMER
 70
     1
  9
$ANGBASE
 50
0.0
  9
$ANGDIR
 70
     0
  9
$PDMODE
 70
     0
  9
$PDSIZE
 40
0.0
  9
$PLINEWID
 40
0.0
  9
$SPLFRAME
 70
     0
  9
$SPLINETYPE
 70
     6
  9
$SPLINESEGS
 70
     8
  9
$HANDSEED
  5
23B
  9
$SURFTAB1
 70
     6
  9
$SURFTAB2
 70
     6
  9
$SURFTYPE
 70
     6
  9
$SURFU
 70
     6
  9
$SURFV
 70
     6
  9
$UCSBASE
  2

  9
$UCSNAME
  2

  9
$UCSORG
 10
0.0
 20
0.0
 30
0.0
  9
$UCSXDIR
 10
1.0
 20
0.0
 30
0.0
  9
$UCSYDIR
 10
0.0
 20
1.0
 30
0.0
  9
$UCSORTHOREF
  2

  9
$UCSORTHOVIEW
 70
     0
  9
$UCSORGTOP
 10
0.0
 20
0.0
 30
0.0
  9
$UCSORGBOTTOM
 10
0.0
 20
0.0
 30
0.0
  9
$UCSORGLEFT
 10
0.0
 20
0.0
 30
0.0
  9
$UCSORGRIGHT
 10
0.0
 20
0.0
 30
0.0
  9
$UCSORGFRONT
 10
0.0
 20
0.0
 30
0.0
  9
$UCSORGBACK
 10
0.0
 20
0.0
 30
0.0
  9
$PUCSBASE
  2

  9
$PUCSNAME
  2

  9
$PUCSORG
 10
0.0
 20
0.0
 30
0.0
  9
$PUCSXDIR
 10
1.0
 20
0.0
 30
0.0
  9
$PUCSYDIR
 10
0.0
 20
1.0
 30
0.0
  9
$PUCSORTHOREF
  2

  9
$PUCSORTHOVIEW
 70
     0
  9
$PUCSORGTOP
 10
0.0
 20
0.0
 30
0.0
  9
$PUCSORGBOTTOM
 10
0.0
 20
0.0
 30
0.0
  9
$PUCSORGLEFT
 10
0.0
 20
0.0
 30
0.0
  9
$PUCSORGRIGHT
 10
0.0
 20
0.0
 30
0.0
  9
$PUCSORGFRONT
 10
0.0
 20
0.0
 30
0.0
  9
$PUCSORGBACK
 10
0.0
 20
0.0
 30
0.0
  9
$USERI1
 70
     0
  9
$USERI2
 70
     0
  9
$USERI3
 70
     0
  9
$USERI4
 70
     0
  9
$USERI5
 70
     0
  9
$USERR1
 40
0.0
  9
$USERR2
 40
0.0
  9
$USERR3
 40
0.0
  9
$USERR4
 40
0.0
  9
$USERR5
 40
0.0
  9
$WORLDVIEW
 70
     1
  9
$SHADEDGE
 70
     3
  9
$SHADEDIF
 70
    70
  9
$TILEMODE
 70
     1
  9
$MAXACTVP
 70
    64
  9
$PINSBASE
 10
0.0
 20
0.0
 30
0.0
  9
$PLIMCHECK
 70
     0
  9
$PEXTMIN
 10
1.000000000000000E+20
 20
1.000000000000000E+20
 30
1.000000000000000E+20
  9
$PEXTMAX
 10
-1.000000000000000E+20
 20
-1.000000000000000E+20
 30
-1.000000000000000E+20
  9
$PLIMMIN
 10
0.0
 20
0.0
  9
$PLIMMAX
 10
0.0
 20
0.0
  9
$UNITMODE
 70
     0
  9
$VISRETAIN
 70
     1
  9
$PLINEGEN
 70
     0
  9
$PSLTSCALE
 70
     1
  9
$TREEDEPTH
 70
  3020
  9
$CMLSTYLE
  2
Standard
  9
$CMLJUST
 70
     0
  9
$CMLSCALE
 40
1.0
  9
$PROXYGRAPHICS
 70
     1
  9
$MEASUREMENT
 70
     0
  9
$CELWEIGHT
370
    -1
  9
$ENDCAPS
280
     0
  9
$JOINSTYLE
280
     0
  9
$LWDISPLAY
290
     0
  9
$INSUNITS
 70
     0
  9
$HYPERLINKBASE
  1

  9
$STYLESHEET
  1

  9
$XEDIT
290
     1
  9
$CEPSNTYPE
380
     0
  9
$PSTYLEMODE
290
     1
  9
$FINGERPRINTGUID
  2
{754C20E3-E3FF-44A6-8101-6532291FEAB0}
  9
$VERSIONGUID
  2
{FAEB1C32-E019-11D5-929B-00C0DF256EC4}
  9
$EXTNAMES
290
     1
  9
$PSVPSCALE
 40
0.0
  9
$OLESTARTUP
290
     0
  0
ENDSEC
  0
SECTION
  2
CLASSES
  0
CLASS
  1
ACDBDICTIONARYWDFLT
  2
AcDbDictionaryWithDefault
  3
ObjectDBX Classes
 90
        0
280
     0
281
     0
  0
CLASS
  1
SCALE
  2
AcDbScale
  3
ObjectDBX Classes
 90
     1153
280
     0
281
     0
  0
CLASS
  1
VISUALSTYLE
  2
AcDbVisualStyle
  3
ObjectDBX Classes
 90
     4095
280
     0
281
     0
  0
CLASS
  1
MATERIAL
  2
AcDbMaterial
  3
ObjectDBX Classes
 90
     1153
280
     0
281
     0
  0
CLASS
  1
DICTIONARYVAR
  2
AcDbDictionaryVar
  3
ObjectDBX Classes
 90
        0
280
     0
281
     0
  0
CLASS
  1
ACDBPLACEHOLDER
  2
AcDbPlaceHolder
  3
ObjectDBX Classes
 90
        0
280
     0
281
     0
  0
CLASS
  1
LAYOUT
  2
AcDbLayout
  3
ObjectDBX Classes
 90
        0
280
     0
281
     0
  0
CLASS
  1
TABLESTYLE
  2
AcDbTableStyle
  3
ObjectDBX Classes
 90
     4095
280
     0
281
     0
  0
CLASS
  1
MLEADERSTYLE
  2
AcDbMLeaderStyle
  3
ACDB_MLEADERSTYLE_CLASS
 90
     4095
280
     0
281
     0
  0
CLASS
  1
SUN
  2
AcDbSun
  3
SCENEOE
 90
     1153
280
     0
281
     0
  0
CLASS
  1
SORTENTSTABLE
  2
AcDbSortentsTable
  3
ObjectDBX Classes
 90
        0
280
     0
281
     0
  0
CLASS
  1
CELLSTYLEMAP
  2
AcDbCellStyleMap
  3
ObjectDBX Classes
 90
     1152
280
     0
281
     0
  0
ENDSEC
  0
SECTION
  2
TABLES
  0
TABLE
  2
VPORT
  5
8
330
0
100
AcDbSymbolTable
 70
     1
  0
VPORT
  5
E1
330
8
100
AcDbSymbolTableRecord
100
AcDbViewportTableRecord
  2
*Active
 70
     0
 10
0.0
 20
0.0
 11
1.0
 21
1.0
 12
-17.91282544970946
 22
11.49207446489802
 13
0.0
 23
0.0
 14
0.5
 24
0.5
 15
0.5
 25
0.5
 16
0.0
 26
0.0
 36
1.0
 17
0.0
 27
0.0
 37
0.0
 40
109.9032206830398
 41
1.978589420654912
 42
50.0
 43
0.0
 44
0.0
 50
0.0
 51
0.0
 71
    16
 72
   100
 73
     1
 74
     3
 75
     0
 76
     0
 77
     0
 78
     0
281
     0
 65
     1
110
0.0
120
0.0
130
0.0
111
1.0
121
0.0
131
0.0
112
0.0
122
1.0
132
0.0
 79
     0
146
0.0
  0
ENDTAB
  0
TABLE
  2
LTYPE
  5
5
330
0
100
AcDbSymbolTable
 70
     8
  0
LTYPE
  5
14
330
5
100
AcDbSymbolTableRecord
100
AcDbLinetypeTableRecord
  2
ByBlock
 70
     0
  3

 72
    65
 73
     0
 40
0.0
  0
LTYPE
  5
15
330
5
100
AcDbSymbolTableRecord
100
AcDbLinetypeTableRecord
  2
ByLayer
 70
     0
  3

 72
    65
 73
     0
 40
0.0
  0
LTYPE
  5
16
330
5
100
AcDbSymbolTableRecord
100
AcDbLinetypeTableRecord
  2
Continuous
 70
     0
  3
Solid line
 72
    65
 73
     0
 40
0.0
  0
LTYPE
  5
20
330
5
100
AcDbSymbolTableRecord
100
AcDbLinetypeTableRecord
  2
PUNKT
 70
     0
  3
..............
 72
    65
 73
     2
 40
1.5
 49
0.7
 74
     0
 49
-0.8
 74
     0
  0
LTYPE
  5
21
330
5
100
AcDbSymbolTableRecord
100
AcDbLinetypeTableRecord
  2
GESTRICHELT
 70
     0
  3
-- -- -- -- --
 72
    65
 73
     7
 40
2.8
 49
0.9
 74
     0
 49
0.0
 74
     0
 49
0.9
 74
     0
 49
0.0
 74
     0
 49
0.2
 74
     0
 49
0.0
 74
     0
 49
-0.8
 74
     0
  0
LTYPE
  5
22
330
5
100
AcDbSymbolTableRecord
100
AcDbLinetypeTableRecord
  2
STRICHPUNKT
 70
     0
  3
--.--.--.--.--
 72
    65
 73
     4
 40
8.8
 49
5.5
 74
     0
 49
-1.3
 74
     0
 49
0.7
 74
     0
 49
-1.3
 74
     0
  0
LTYPE
  5
25
330
5
100
AcDbSymbolTableRecord
100
AcDbLinetypeTableRecord
  2
PHANTOM
 70
     0
  3
--..--..--..--
 72
    65
 73
     6
 40
14.2
 49
7.0
 74
     0
 49
-1.8
 74
     0
 49
0.9
 74
     0
 49
-1.8
 74
     0
 49
0.9
 74
     0
 49
-1.8
 74
     0
  0
LTYPE
  5
159
330
5
100
AcDbSymbolTableRecord
100
AcDbLinetypeTableRecord
  2
DASH
 70
     0
  3
DASH _ _ _ _ _
 72
    65
 73
     2
 40
0.75
 49
0.4
 74
     0
 49
-0.35
 74
     0
  0
LTYPE
  5
15A
330
5
100
AcDbSymbolTableRecord
100
AcDbLinetypeTableRecord
  2
LONGDASH_DASH
 70
     0
  3
LONGDASH_DASH __ . __ . __
 72
    65
 73
     4
 40
0.85
 49
0.4
 74
     0
 49
-0.2
 74
     0
 49
0.05
 74
     0
 49
-0.2
 74
     0
  0
LTYPE
  5
15B
330
5
100
AcDbSymbolTableRecord
100
AcDbLinetypeTableRecord
  2
LONGDASH_DASH_DASH
 70
     0
  3
LONGDASH_DASH_DASH __ . . __ . . __
 72
    65
 73
     6
 40
1.1
 49
0.4
 74
     0
 49
-0.2
 74
     0
 49
0.05
 74
     0
 49
-0.2
 74
     0
 49
0.05
 74
     0
 49
-0.2
 74
     0
  0
ENDTAB
  0
TABLE
  2
LAYER
  5
2
102
{ACAD_XDICTIONARY
360
178
102
}
330
0
100
AcDbSymbolTable
 70
    17
  0
LAYER
  5
123
330
2
100
AcDbSymbolTableRecord
100
AcDbLayerTableRecord
  2
200
 70
     0
 62
     2
  6
Continuous
370
    50
390
F
  0
LAYER
  5
15C
330
2
100
AcDbSymbolTableRecord
100
AcDbLayerTableRecord
  2
0
 70
     0
 62
     1
  6
Continuous
370
    -3
390
F
  0
LAYER
  5
15D
330
2
100
AcDbSymbolTableRecord
100
AcDbLayerTableRecord
  2
1
 70
     0
 62
     4
  6
Continuous
370
    50
390
F
  0
LAYER
  5
15E
330
2
100
AcDbSymbolTableRecord
100
AcDbLayerTableRecord
  2
2
 70
     0
 62
     7
  6
Continuous
370
    25
390
F
  0
LAYER
  5
15F
330
2
100
AcDbSymbolTableRecord
100
AcDbLayerTableRecord
  2
3
 70
     0
 62
     1
  6
DASH
370
    35
390
F
  0
LAYER
  5
160
330
2
100
AcDbSymbolTableRecord
100
AcDbLayerTableRecord
  2
4
 70
     0
 62
     2
  6
LONGDASH_DASH
370
    25
390
F
  0
LAYER
  5
161
330
2
100
AcDbSymbolTableRecord
100
AcDbLayerTableRecord
  2
6
 70
     0
 62
     5
  6
Continuous
370
    -3
390
F
  0
LAYER
  5
162
330
2
100
AcDbSymbolTableRecord
100
AcDbLayerTableRecord
  2
CUT
 70
     0
 62
     1
  6
Continuous
370
    25
390
F
  0
LAYER
  5
163
330
2
100
AcDbSymbolTableRecord
100
AcDbLayerTableRecord
  2
NOCUT
 70
     0
 62
     7
  6
Continuous
370
    25
390
F
  0
LAYER
  5
164
330
2
100
AcDbSymbolTableRecord
100
AcDbLayerTableRecord
  2
SK1
 70
     0
 62
     4
  6
Continuous
370
    50
390
F
  0
LAYER
  5
165
330
2
100
AcDbSymbolTableRecord
100
AcDbLayerTableRecord
  2
SK2
 70
     0
 62
     7
  6
Continuous
370
    25
390
F
  0
LAYER
  5
166
330
2
100
AcDbSymbolTableRecord
100
AcDbLayerTableRecord
  2
SK3
 70
     0
 62
     1
  6
DASH
370
    35
390
F
  0
LAYER
  5
167
330
2
100
AcDbSymbolTableRecord
100
AcDbLayerTableRecord
  2
SK4
 70
     0
 62
     2
  6
LONGDASH_DASH
370
    25
390
F
  0
LAYER
  5
168
330
2
100
AcDbSymbolTableRecord
100
AcDbLayerTableRecord
  2
SK6
 70
     0
 62
     5
  6
Continuous
370
    -3
390
F
  0
LAYER
  5
169
330
2
100
AcDbSymbolTableRecord
100
AcDbLayerTableRecord
  2
INFTOTAL
 70
     0
 62
     9
  6
Continuous
370
    18
390
F
  0
LAYER
  5
1D7
330
2
100
AcDbSymbolTableRecord
100
AcDbLayerTableRecord
  2
Defpoints
 70
     0
 62
     7
  6
Continuous
290
     0
370
    -3
390
F
  0
LAYER
  5
226
330
2
100
AcDbSymbolTableRecord
100
AcDbLayerTableRecord
  2
7
 70
     0
 62
     5
  6
Continuous
370
    -3
390
F
1001
AcAecLayerStandard
1000

1000

  0
ENDTAB
  0
TABLE
  2
STYLE
  5
3
330
0
100
AcDbSymbolTable
 70
     2
  0
STYLE
  5
11
330
3
100
AcDbSymbolTableRecord
100
AcDbTextStyleTableRecord
  2
Standard
 70
     0
 40
0.0
 41
1.0
 50
0.0
 71
     0
 42
0.2
  3
txt
  4

  0
STYLE
  5
122
330
3
100
AcDbSymbolTableRecord
100
AcDbTextStyleTableRecord
  2
BMG_Text
 70
     0
 40
3.5
 41
1.0
 50
0.0
 71
     0
 42
0.2
  3
monos.ttf
  4

1001
ACAD
1000
Monospac821 BT
1071
       49
  0
ENDTAB
  0
TABLE
  2
VIEW
  5
6
330
0
100
AcDbSymbolTable
 70
     0
  0
ENDTAB
  0
TABLE
  2
UCS
  5
7
330
0
100
AcDbSymbolTable
 70
     0
  0
ENDTAB
  0
TABLE
  2
APPID
  5
9
330
0
100
AcDbSymbolTable
 70
     3
  0
APPID
  5
12
330
9
100
AcDbSymbolTableRecord
100
AcDbRegAppTableRecord
  2
ACAD
 70
     0
  0
APPID
  5
1D6
330
9
100
AcDbSymbolTableRecord
100
AcDbRegAppTableRecord
  2
ACAD_DSTYLE_DIMRADIAL_EXTENSION
 70
     0
  0
APPID
  5
227
330
9
100
AcDbSymbolTableRecord
100
AcDbRegAppTableRecord
  2
AcAecLayerStandard
 70
     0
  0
ENDTAB
  0
TABLE
  2
DIMSTYLE
  5
A
330
0
100
AcDbSymbolTable
 70
     1
100
AcDbDimStyleTable
  0
DIMSTYLE
105
28
330
A
100
AcDbSymbolTableRecord
100
AcDbDimStyleTableRecord
  2
Standard
 70
     0
178
     0
340
11
  0
ENDTAB
  0
TABLE
  2
BLOCK_RECORD
  5
1
330
0
100
AcDbSymbolTable
 70
     0
  0
BLOCK_RECORD
  5
1D
102
{ACAD_XDICTIONARY
360
22B
102
}
330
1
100
AcDbSymbolTableRecord
100
AcDbBlockTableRecord
  2
*Model_Space
340
1E
  0
BLOCK_RECORD
  5
1B
330
1
100
AcDbSymbolTableRecord
100
AcDbBlockTableRecord
  2
*Paper_Space
340
1C
  0
ENDTAB
  0
ENDSEC
  0
SECTION
  2
BLOCKS
  0
BLOCK
  5
10B
330
1D
100
AcDbEntity
  8
0
100
AcDbBlockBegin
  2
*Model_Space
 70
     0
 10
0.0
 20
0.0
 30
0.0
  3
*Model_Space
  1

  0
ENDBLK
  5
10C
330
1D
100
AcDbEntity
  8
0
100
AcDbBlockEnd
  0
BLOCK
  5
109
330
1B
100
AcDbEntity
 67
     1
  8
0
100
AcDbBlockBegin
  2
*Paper_Space
 70
     0
 10
0.0
 20
0.0
 30
0.0
  3
*Paper_Space
  1

  0
ENDBLK
  5
10A
330
1B
100
AcDbEntity
 67
     1
  8
0
100
AcDbBlockEnd
  0
ENDSEC
  0
SECTION
  2
ENTITIES
  0
LINE
  5
29
330
1D
100
AcDbEntity
  8
SK3
  6
DASH
370
    35
100
AcDbLine
 10
30.399410633
 20
12.538552103
 30
0.0
 11
30.394112219
 21
-9.5
 31
0.0
  0
LINE
  5
2A
330
1D
100
AcDbEntity
  8
SK3
  6
DASH
370
    35
100
AcDbLine
 10
31.369205
 20
-12.6
 30
0.0
 11
31.369205
 21
-9.5
 31
0.0
  0
LINE
  5
2B
330
1D
100
AcDbEntity
  8
1
  6
Continuous
370
    50
100
AcDbLine
 10
28.194788838
 20
14.095747586
 30
0.0
 11
28.543617323
 21
14.095747586
 31
0.0
  0
LINE
  5
2C
330
1D
100
AcDbEntity
  8
1
  6
Continuous
370
    50
100
AcDbLine
 10
28.543617323
 20
14.095747586
 30
0.0
 11
37.0
 21
7.0
 31
0.0
  0
LINE
  5
2D
330
1D
100
AcDbEntity
  8
1
  6
Continuous
370
    50
100
AcDbLine
 10
37.0
 20
7.0
 30
0.0
 11
37.0
 21
-12.15
 31
0.0
  0
LINE
  5
2E
330
1D
100
AcDbEntity
  8
1
  6
Continuous
370
    50
100
AcDbLine
 10
37.0
 20
-12.15
 30
0.0
 11
35.64900037
 21
-14.49
 31
0.0
  0
ARC
  5
2F
330
1D
100
AcDbEntity
  8
1
  6
Continuous
370
    50
100
AcDbCircle
 10
34.782974966
 20
-13.99
 30
0.0
 40
1.0
100
AcDbArc
 50
270.0
 51
330.0
  0
LINE
  5
30
330
1D
100
AcDbEntity
  8
1
  6
Continuous
370
    50
100
AcDbLine
 10
34.782974966
 20
-14.99
 30
0.0
 11
32.64039857
 21
-14.99
 31
0.0
  0
LINE
  5
31
330
1D
100
AcDbEntity
  8
1
  6
Continuous
370
    50
100
AcDbLine
 10
32.64039857
 20
-14.99
 30
0.0
 11
32.0
 21
-12.6
 31
0.0
  0
LINE
  5
32
330
1D
100
AcDbEntity
  8
1
  6
Continuous
370
    50
100
AcDbLine
 10
32.0
 20
-12.6
 30
0.0
 11
15.2
 21
-12.6
 31
0.0
  0
LINE
  5
33
330
1D
100
AcDbEntity
  8
1
  6
Continuous
370
    50
100
AcDbLine
 10
15.2
 20
-12.6
 30
0.0
 11
15.2
 21
14.99
 31
0.0
  0
ARC
  5
34
330
1D
100
AcDbEntity
  8
1
  6
Continuous
370
    50
100
AcDbCircle
 10
23.365333043
 20
28.624645645
 30
0.0
 40
15.31053631
100
AcDbArc
 50
242.939535201
 51
288.386984742
  0
LINE
  5
35
330
1D
100
AcDbEntity
  8
SK3
  6
DASH
370
    35
100
AcDbLine
 10
16.4
 20
14.99
 30
0.0
 11
16.405887781
 21
-9.5
 31
0.0
  0
ARC
  5
36
330
1D
100
AcDbEntity
  8
1
  6
Continuous
370
    50
100
AcDbCircle
 10
37.082783233
 20
10.356769955
 30
0.0
 40
0.15
100
AcDbArc
 50
235.986100056
 51
42.24630474200001
  0
ARC
  5
37
330
1D
100
AcDbEntity
  8
1
  6
Continuous
370
    50
100
AcDbCircle
 10
36.775116527
 20
9.900873916
 30
0.0
 40
0.4
100
AcDbArc
 50
55.986100034
 51
162.246304733
  0
ARC
  5
38
330
1D
100
AcDbEntity
  8
1
  6
Continuous
370
    50
100
AcDbCircle
 10
36.251309653
 20
10.068583064
 30
0.0
 40
0.15
100
AcDbArc
 50
175.986100032
 51
342.246304742
  0
ARC
  5
39
330
1D
100
AcDbEntity
  8
1
  6
Continuous
370
    50
100
AcDbCircle
 10
35.702658749
 20
10.107082228
 30
0.0
 40
0.4
100
AcDbArc
 50
355.9861000339999
 51
102.246304746
  0
ARC
  5
3A
330
1D
100
AcDbEntity
  8
1
  6
Continuous
370
    50
100
AcDbCircle
 10
35.585995693
 20
10.644566862
 30
0.0
 40
0.15
100
AcDbArc
 50
115.986100015
 51
282.246304742
  0
ARC
  5
3B
330
1D
100
AcDbEntity
  8
1
  6
Continuous
370
    50
100
AcDbCircle
 10
35.345011496
 20
11.138962065
 30
0.0
 40
0.4
100
AcDbArc
 50
295.986100034
 51
42.246304738
  0
ARC
  5
3C
330
1D
100
AcDbEntity
  8
1
  6
Continuous
370
    50
100
AcDbCircle
 10
35.752155315
 20
11.508737551
 30
0.0
 40
0.15
100
AcDbArc
 50
55.986100056
 51
222.246304742
  0
ARC
  5
3D
330
1D
100
AcDbEntity
  8
1
  6
Continuous
370
    50
100
AcDbCircle
 10
36.059822022
 20
11.96463359
 30
0.0
 40
0.4
100
AcDbArc
 50
235.986100034
 51
342.246304733
  0
ARC
  5
3E
330
1D
100
AcDbEntity
  8
1
  6
Continuous
370
    50
100
AcDbCircle
 10
36.583628896
 20
11.796924442
 30
0.0
 40
0.15
100
AcDbArc
 50
355.986100032
 51
162.246304742
  0
ARC
  5
3F
330
1D
100
AcDbEntity
  8
1
  6
Continuous
370
    50
100
AcDbCircle
 10
37.1322798
 20
11.758425278
 30
0.0
 40
0.4
100
AcDbArc
 50
175.986100034
 51
282.246304749
  0
ARC
  5
40
330
1D
100
AcDbEntity
  8
1
  6
Continuous
370
    50
100
AcDbCircle
 10
37.248942856
 20
11.220940644
 30
0.0
 40
0.15
100
AcDbArc
 50
295.986099998
 51
102.246304742
  0
ARC
  5
41
330
1D
100
AcDbEntity
  8
1
  6
Continuous
370
    50
100
AcDbCircle
 10
37.489927053
 20
10.726545441
 30
0.0
 40
0.4
100
AcDbArc
 50
115.986100034
 51
222.246304742
  0
ARC
  5
42
330
1D
100
AcDbEntity
  8
SK1
100
AcDbCircle
 10
-0.3
 20
-9.3
 30
0.0
 40
0.5
100
AcDbArc
 50
53.130102354
 51
104.999999996
  0
LINE
  5
43
330
1D
100
AcDbEntity
  8
SK1
100
AcDbLine
 10
-0.429409522
 20
-8.817037087
 30
0.0
 11
-1.11223641
 21
-9.0
 31
0.0
  0
LINE
  5
44
330
1D
100
AcDbEntity
  8
SK1
100
AcDbLine
 10
-1.11223641
 20
-9.0
 30
0.0
 11
-15.75
 21
-9.0
 31
0.0
  0
LINE
  5
45
330
1D
100
AcDbEntity
  8
SK1
100
AcDbLine
 10
-15.75
 20
-9.0
 30
0.0
 11
-17.657502267
 21
-8.663655885
 31
0.0
  0
LINE
  5
46
330
1D
100
AcDbEntity
  8
SK1
100
AcDbLine
 10
-17.657502267
 20
-8.663655885
 30
0.0
 11
-19.530540729
 21
-8.993923101
 31
0.0
  0
ARC
  5
47
330
1D
100
AcDbEntity
  8
SK1
100
AcDbCircle
 10
-19.6
 20
-8.6
 30
0.0
 40
0.4
100
AcDbArc
 50
180.0
 51
280.0
  0
LINE
  5
48
330
1D
100
AcDbEntity
  8
SK1
100
AcDbLine
 10
-20.0
 20
-8.6
 30
0.0
 11
-20.0
 21
8.6
 31
0.0
  0
ARC
  5
49
330
1D
100
AcDbEntity
  8
SK1
100
AcDbCircle
 10
-19.6
 20
8.6
 30
0.0
 40
0.4
100
AcDbArc
 50
79.99999999500001
 51
180.0
  0
LINE
  5
4A
330
1D
100
AcDbEntity
  8
SK1
100
AcDbLine
 10
-19.530540729
 20
8.993923101
 30
0.0
 11
-17.657502267
 21
8.663655885
 31
0.0
  0
LINE
  5
4B
330
1D
100
AcDbEntity
  8
SK1
100
AcDbLine
 10
-17.657502267
 20
8.663655885
 30
0.0
 11
-15.75
 21
9.0
 31
0.0
  0
LINE
  5
4C
330
1D
100
AcDbEntity
  8
SK1
100
AcDbLine
 10
-15.75
 20
9.0
 30
0.0
 11
-1.11223641
 21
9.0
 31
0.0
  0
LINE
  5
4D
330
1D
100
AcDbEntity
  8
SK1
100
AcDbLine
 10
-1.11223641
 20
9.0
 30
0.0
 11
-0.429409523
 21
8.817037087
 31
0.0
  0
ARC
  5
4E
330
1D
100
AcDbEntity
  8
SK1
100
AcDbCircle
 10
-0.3
 20
9.3
 30
0.0
 40
0.5
100
AcDbArc
 50
255.0
 51
306.8698976460001
  0
ARC
  5
4F
330
1D
100
AcDbEntity
  8
1
  6
Continuous
370
    50
100
AcDbCircle
 10
33.618542504
 20
-1.207689739
 30
0.0
 40
16.043864428
100
AcDbArc
 50
106.730214814
 51
107.477756861
  0
LINE
  5
50
330
1D
100
AcDbEntity
  8
1
  6
Continuous
370
    50
100
AcDbLine
 10
29.0
 20
14.157270925
 30
0.0
 11
29.7
 21
14.243220118
 31
0.0
  0
LINE
  5
51
330
1D
100
AcDbEntity
  8
1
  6
Continuous
370
    50
100
AcDbLine
 10
29.7
 20
14.243220118
 30
0.0
 11
29.7
 21
14.476431943
 31
0.0
  0
LINE
  5
52
330
1D
100
AcDbEntity
  8
1
  6
Continuous
370
    50
100
AcDbLine
 10
29.7
 20
14.476431943
 30
0.0
 11
37.890479522
 21
15.482096375
 31
0.0
  0
LINE
  5
53
330
1D
100
AcDbEntity
  8
1
  6
Continuous
370
    50
100
AcDbLine
 10
37.890479522
 20
15.482096375
 30
0.0
 11
37.919944129
 21
15.424268827
 31
0.0
  0
LINE
  5
54
330
1D
100
AcDbEntity
  8
1
  6
Continuous
370
    50
100
AcDbLine
 10
14.09206462
 20
14.99
 30
0.0
 11
13.8
 21
13.9
 31
0.0
  0
LINE
  5
55
330
1D
100
AcDbEntity
  8
1
  6
Continuous
370
    50
100
AcDbLine
 10
13.8
 20
13.9
 30
0.0
 11
2.2
 21
13.9
 31
0.0
  0
LINE
  5
56
330
1D
100
AcDbEntity
  8
1
  6
Continuous
370
    50
100
AcDbLine
 10
2.2
 20
13.9
 30
0.0
 11
1.919993094
 21
14.945
 31
0.0
  0
LINE
  5
57
330
1D
100
AcDbEntity
  8
1
  6
Continuous
370
    50
100
AcDbLine
 10
1.919993094
 20
14.945
 30
0.0
 11
0.2
 21
14.945
 31
0.0
  0
LINE
  5
58
330
1D
100
AcDbEntity
  8
1
  6
Continuous
370
    50
100
AcDbLine
 10
0.2
 20
14.945
 30
0.0
 11
0.0
 21
14.745
 31
0.0
  0
LINE
  5
59
330
1D
100
AcDbEntity
  8
1
  6
Continuous
370
    50
100
AcDbLine
 10
0.0
 20
-14.745
 30
0.0
 11
0.2
 21
-14.945
 31
0.0
  0
LINE
  5
5A
330
1D
100
AcDbEntity
  8
1
  6
Continuous
370
    50
100
AcDbLine
 10
0.2
 20
-14.945
 30
0.0
 11
0.599415957
 21
-14.945
 31
0.0
  0
LINE
  5
5B
330
1D
100
AcDbEntity
  8
1
  6
Continuous
370
    50
100
AcDbLine
 10
0.599415957
 20
-14.945
 30
0.0
 11
1.0
 21
-13.45
 31
0.0
  0
LINE
  5
5C
330
1D
100
AcDbEntity
  8
1
  6
Continuous
370
    50
100
AcDbLine
 10
1.0
 20
-13.45
 30
0.0
 11
14.972243186
 21
-13.45
 31
0.0
  0
LINE
  5
5D
330
1D
100
AcDbEntity
  8
1
  6
Continuous
370
    50
100
AcDbLine
 10
14.972243186
 20
-13.45
 30
0.0
 11
15.2
 21
-12.6
 31
0.0
  0
LINE
  5
5E
330
1D
100
AcDbEntity
  8
1
  6
Continuous
370
    50
100
AcDbLine
 10
1.4878758
 20
-13.45
 30
0.0
 11
5.481153348
 21
-14.52
 31
0.0
  0
LINE
  5
5F
330
1D
100
AcDbEntity
  8
1
  6
Continuous
370
    50
100
AcDbLine
 10
5.481153348
 20
-14.52
 30
0.0
 11
10.518846652
 21
-14.52
 31
0.0
  0
LINE
  5
60
330
1D
100
AcDbEntity
  8
1
  6
Continuous
370
    50
100
AcDbLine
 10
10.518846652
 20
-14.52
 30
0.0
 11
14.512141016
 21
-13.45
 31
0.0
  0
LINE
  5
61
330
1D
100
AcDbEntity
  8
1
  6
Continuous
370
    50
100
AcDbLine
 10
37.0
 20
6.851639109
 30
0.0
 11
38.858186752
 21
5.644918523
 31
0.0
  0
ARC
  5
62
330
1D
100
AcDbEntity
  8
1
  6
Continuous
370
    50
100
AcDbCircle
 10
39.076042366
 20
5.98038675
 30
0.0
 40
0.4
100
AcDbArc
 50
237.0
 51
356.9999999999999
  0
LINE
  5
63
330
1D
100
AcDbEntity
  8
1
  6
Continuous
370
    50
100
AcDbLine
 10
39.475494179
 20
5.959452368
 30
0.0
 11
39.97859355
 21
15.559160229
 31
0.0
  0
ARC
  5
64
330
1D
100
AcDbEntity
  8
1
  6
Continuous
370
    50
100
AcDbCircle
 10
39.579141736
 20
15.580094612
 30
0.0
 40
0.4
100
AcDbArc
 50
356.9999999999999
 51
117.000000005
  0
LINE
  5
65
330
1D
100
AcDbEntity
  8
1
  6
Continuous
370
    50
100
AcDbLine
 10
39.397545537
 20
15.936497221
 30
0.0
 11
31.27944292
 21
11.800117336
 31
0.0
  0
LINE
  5
66
330
1D
100
AcDbEntity
  8
1
  6
Continuous
370
    50
100
AcDbLine
 10
31.939102232
 20
12.769650778
 30
0.0
 11
31.707785038
 21
12.781773599
 31
0.0
  0
ARC
  5
67
330
1D
100
AcDbEntity
  8
1
  6
Continuous
370
    50
100
AcDbCircle
 10
31.624047508
 20
11.183966343
 30
0.0
 40
1.6
100
AcDbArc
 50
87.0
 51
118.182853765
  0
LINE
  5
68
330
1D
100
AcDbEntity
  8
1
  6
Continuous
370
    50
100
AcDbLine
 10
30.868388297
 20
12.594278067
 30
0.0
 11
30.619809148
 21
12.429560706
 31
0.0
  0
LINE
  5
69
330
1D
100
AcDbEntity
  8
1
  6
Continuous
370
    50
100
AcDbLine
 10
30.619809148
 20
12.429560706
 30
0.0
 11
30.574503098
 21
12.39163208
 31
0.0
  0
LINE
  5
6A
330
1D
100
AcDbEntity
  8
1
  6
Continuous
370
    50
100
AcDbLine
 10
15.430794999
 20
-12.6
 30
0.0
 11
20.5353
 21
-14.21
 31
0.0
  0
LINE
  5
6B
330
1D
100
AcDbEntity
  8
1
  6
Continuous
370
    50
100
AcDbLine
 10
20.5353
 20
-14.21
 30
0.0
 11
26.2647
 21
-14.21
 31
0.0
  0
LINE
  5
6C
330
1D
100
AcDbEntity
  8
1
  6
Continuous
370
    50
100
AcDbLine
 10
26.2647
 20
-14.21
 30
0.0
 11
31.369205
 21
-12.6
 31
0.0
  0
LINE
  5
6D
330
1D
100
AcDbEntity
  8
1
  6
Continuous
370
    50
100
AcDbLine
 10
37.099335807
 20
-3.71027372
 30
0.0
 11
37.068148347
 21
-3.826666905
 31
0.0
  0
ARC
  5
6E
330
1D
100
AcDbEntity
  8
1
  6
Continuous
370
    50
100
AcDbCircle
 10
39.0
 20
-4.344304995
 30
0.0
 40
2.0
100
AcDbArc
 50
165.0
 51
180.0
  0
LINE
  5
6F
330
1D
100
AcDbEntity
  8
1
  6
Continuous
370
    50
100
AcDbLine
 10
37.704974325
 20
-1.45
 30
0.0
 11
38.1
 21
-1.45
 31
0.0
  0
ARC
  5
70
330
1D
100
AcDbEntity
  8
1
  6
Continuous
370
    50
100
AcDbCircle
 10
38.1
 20
-1.25
 30
0.0
 40
0.2
100
AcDbArc
 50
270.0
 51
0.0
  0
LINE
  5
71
330
1D
100
AcDbEntity
  8
1
  6
Continuous
370
    50
100
AcDbLine
 10
38.3
 20
-1.25
 30
0.0
 11
38.3
 21
0.77066605
 31
0.0
  0
LINE
  5
72
330
1D
100
AcDbEntity
  8
1
  6
Continuous
370
    50
100
AcDbLine
 10
29.43
 20
6.721687836
 30
0.0
 11
29.43
 21
5.278312164
 31
0.0
  0
LINE
  5
73
330
1D
100
AcDbEntity
  8
1
  6
Continuous
370
    50
100
AcDbLine
 10
29.43
 20
5.278312164
 30
0.0
 11
30.68
 21
4.556624327
 31
0.0
  0
LINE
  5
74
330
1D
100
AcDbEntity
  8
1
  6
Continuous
370
    50
100
AcDbLine
 10
30.68
 20
4.556624327
 30
0.0
 11
31.93
 21
5.278312164
 31
0.0
  0
LINE
  5
75
330
1D
100
AcDbEntity
  8
1
  6
Continuous
370
    50
100
AcDbLine
 10
31.93
 20
5.278312164
 30
0.0
 11
31.93
 21
6.721687836
 31
0.0
  0
LINE
  5
76
330
1D
100
AcDbEntity
  8
1
  6
Continuous
370
    50
100
AcDbLine
 10
31.93
 20
6.721687836
 30
0.0
 11
30.68
 21
7.443375673
 31
0.0
  0
LINE
  5
77
330
1D
100
AcDbEntity
  8
1
  6
Continuous
370
    50
100
AcDbLine
 10
30.68
 20
7.443375673
 30
0.0
 11
29.43
 21
6.721687836
 31
0.0
  0
LINE
  5
78
330
1D
100
AcDbEntity
  8
SK1
100
AcDbLine
 10
-15.75
 20
-9.0
 30
0.0
 11
-15.75
 21
9.0
 31
0.0
  0
LINE
  5
79
330
1D
100
AcDbEntity
  8
1
  6
Continuous
370
    50
100
AcDbLine
 10
28.175981574
 20
14.4
 30
0.0
 11
17.702120318
 21
14.4
 31
0.0
  0
LINE
  5
7A
330
1D
100
AcDbEntity
  8
1
  6
Continuous
370
    50
100
AcDbLine
 10
37.919944129
 20
15.424268827
 30
0.0
 11
37.963976081
 21
15.337851256
 31
0.0
  0
LINE
  5
7B
330
1D
100
AcDbEntity
  8
1
  6
Continuous
370
    50
100
AcDbLine
 10
32.831781385
 20
12.722867446
 30
0.0
 11
31.939102232
 21
12.769650778
 31
0.0
  0
LINE
  5
7C
330
1D
100
AcDbEntity
  8
1
  6
Continuous
370
    50
100
AcDbLine
 10
29.5
 20
14.4
 30
0.0
 11
28.175981574
 21
14.4
 31
0.0
  0
LINE
  5
7D
330
1D
100
AcDbEntity
  8
SK3
  6
DASH
370
    35
100
AcDbLine
 10
-1.0
 20
-4.2
 30
0.0
 11
0.528674984
 21
0.0
 31
0.0
  0
LINE
  5
7E
330
1D
100
AcDbEntity
  8
SK3
  6
DASH
370
    35
100
AcDbLine
 10
0.528674984
 20
0.0
 30
0.0
 11
-1.0
 21
4.2
 31
0.0
  0
LINE
  5
7F
330
1D
100
AcDbEntity
  8
SK3
  6
DASH
370
    35
100
AcDbLine
 10
-1.0
 20
4.2
 30
0.0
 11
-1.0
 21
-4.2
 31
0.0
  0
LINE
  5
80
330
1D
100
AcDbEntity
  8
SK3
  6
DASH
370
    35
100
AcDbLine
 10
1.5
 20
-13.45
 30
0.0
 11
1.5
 21
-9.76
 31
0.0
  0
LINE
  5
81
330
1D
100
AcDbEntity
  8
SK3
  6
DASH
370
    35
100
AcDbLine
 10
14.5
 20
-9.76
 30
0.0
 11
14.5
 21
-13.45
 31
0.0
  0
LINE
  5
82
330
1D
100
AcDbEntity
  8
SK3
  6
DASH
370
    35
100
AcDbLine
 10
2.75
 20
13.9
 30
0.0
 11
2.75
 21
-9.76
 31
0.0
  0
LINE
  5
83
330
1D
100
AcDbEntity
  8
SK3
  6
DASH
370
    35
100
AcDbLine
 10
13.25
 20
-9.66
 30
0.0
 11
13.25
 21
13.9
 31
0.0
  0
LINE
  5
84
330
1D
100
AcDbEntity
  8
1
  6
Continuous
370
    50
100
AcDbLine
 10
39.469292214
 20
5.134524003
 30
0.0
 11
37.099335807
 21
-3.71027372
 31
0.0
  0
LINE
  5
85
330
1D
100
AcDbEntity
  8
1
  6
Continuous
370
    50
100
AcDbLine
 10
39.469292214
 20
5.134524003
 30
0.0
 11
39.233220684
 21
5.574125128
 31
0.0
  0
LINE
  5
86
330
1D
100
AcDbEntity
  8
1
  6
Continuous
370
    50
100
AcDbLine
 10
39.233220684
 20
5.574125128
 30
0.0
 11
39.195479528
 21
5.598634521
 31
0.0
  0
LINE
  5
87
330
1D
100
AcDbEntity
  8
1
  6
Continuous
370
    50
100
AcDbLine
 10
29.5
 20
14.4
 30
0.0
 11
29.6
 21
14.4
 31
0.0
  0
LINE
  5
88
330
1D
100
AcDbEntity
  8
1
  6
Continuous
370
    50
100
AcDbLine
 10
29.6
 20
14.4
 30
0.0
 11
29.6
 21
14.230941662
 31
0.0
  0
LINE
  5
89
330
1D
100
AcDbEntity
  8
SK3
  6
DASH
370
    35
100
AcDbLine
 10
15.430794999
 20
-9.5
 30
0.0
 11
16.746309076
 21
-9.5
 31
0.0
  0
LINE
  5
8A
330
1D
100
AcDbEntity
  8
SK3
  6
DASH
370
    35
100
AcDbLine
 10
29.853936223
 20
-9.5
 30
0.0
 11
31.369496289
 21
-9.5
 31
0.0
  0
LINE
  5
8B
330
1D
100
AcDbEntity
  8
1
  6
Continuous
370
    50
100
AcDbLine
 10
37.931824265
 20
15.400952749
 30
0.0
 11
38.478127549
 21
15.468030358
 31
0.0
  0
LINE
  5
8C
330
1D
100
AcDbEntity
  8
1
  6
Continuous
370
    50
100
AcDbLine
 10
38.017287937
 20
15.233220847
 30
0.0
 11
37.963976081
 21
15.337851256
 31
0.0
  0
LINE
  5
8D
330
1D
100
AcDbEntity
  8
1
  6
Continuous
370
    50
100
AcDbLine
 10
32.831781385
 20
12.722867446
 30
0.0
 11
33.066318424
 21
12.710575881
 31
0.0
  0
LINE
  5
8E
330
1D
100
AcDbEntity
  8
1
  6
Continuous
370
    50
100
AcDbLine
 10
28.8
 20
13.880616976
 30
0.0
 11
28.8
 21
14.4
 31
0.0
  0
LINE
  5
8F
330
1D
100
AcDbEntity
  8
SK1
100
AcDbLine
 10
-1.11223641
 20
9.0
 30
0.0
 11
-1.11223641
 21
-9.0
 31
0.0
  0
LINE
  5
90
330
1D
100
AcDbEntity
  8
SK1
100
AcDbLine
 10
-17.657502267
 20
-8.663655885
 30
0.0
 11
-17.657502267
 21
8.663655885
 31
0.0
  0
LINE
  5
91
330
1D
100
AcDbEntity
  8
1
  6
Continuous
370
    50
100
AcDbLine
 10
34.782974966
 20
-14.99
 30
0.0
 11
34.782974966
 21
8.860304888
 31
0.0
  0
LINE
  5
92
330
1D
100
AcDbEntity
  8
1
  6
Continuous
370
    50
100
AcDbLine
 10
35.64900037
 20
-14.49
 30
0.0
 11
35.64900037
 21
8.133623291
 31
0.0
  0
LINE
  5
93
330
1D
100
AcDbEntity
  8
SK3
  6
DASH
370
    35
100
AcDbLine
 10
1.5
 20
-9.76
 30
0.0
 11
14.5
 21
-9.76
 31
0.0
  0
LINE
  5
94
330
1D
100
AcDbEntity
  8
SK3
  6
DASH
370
    35
100
AcDbLine
 10
-20.0
 20
-4.2
 30
0.0
 11
-1.0
 21
-4.2
 31
0.0
  0
LINE
  5
95
330
1D
100
AcDbEntity
  8
SK3
  6
DASH
370
    35
100
AcDbLine
 10
-1.0
 20
4.2
 30
0.0
 11
-20.0
 21
4.2
 31
0.0
  0
CIRCLE
  5
96
330
1D
100
AcDbEntity
  8
1
  6
Continuous
370
    50
100
AcDbCircle
 10
30.680096068
 20
6.001003726
 30
0.0
 40
3.000096236
  0
CIRCLE
  5
97
330
1D
100
AcDbEntity
  8
1
  6
Continuous
370
    50
100
AcDbCircle
 10
8.000016009
 20
-3.000137646
 30
0.0
 40
2.599862354
  0
CIRCLE
  5
98
330
1D
100
AcDbEntity
  8
SK1
100
AcDbCircle
 10
-7.75
 20
0.0
 30
0.0
 40
2.25
  0
LINE
  5
99
330
1D
100
AcDbEntity
  8
1
  6
Continuous
370
    50
100
AcDbLine
 10
0.0
 20
14.745
 30
0.0
 11
0.0
 21
-14.745
 31
0.0
  0
LINE
  5
9A
330
1D
100
AcDbEntity
  8
SK3
  6
DASH
370
    35
100
AcDbLine
 10
15.430794999
 20
-12.6
 30
0.0
 11
15.430794999
 21
-9.5
 31
0.0
  0
LINE
  5
9B
330
1D
100
AcDbEntity
  8
1
  6
Continuous
370
    50
100
AcDbLine
 10
9.443391682
 20
-3.000137646
 30
0.0
 11
8.721703845
 21
-1.750137646
 31
0.0
  0
LINE
  5
9C
330
1D
100
AcDbEntity
  8
1
  6
Continuous
370
    50
100
AcDbLine
 10
8.721703845
 20
-1.750137646
 30
0.0
 11
7.278328172
 21
-1.750137646
 31
0.0
  0
LINE
  5
9D
330
1D
100
AcDbEntity
  8
1
  6
Continuous
370
    50
100
AcDbLine
 10
7.278328172
 20
-1.750137646
 30
0.0
 11
6.556640336
 21
-3.000137646
 31
0.0
  0
LINE
  5
9E
330
1D
100
AcDbEntity
  8
1
  6
Continuous
370
    50
100
AcDbLine
 10
6.556640336
 20
-3.000137646
 30
0.0
 11
7.278328172
 21
-4.250137646
 31
0.0
  0
LINE
  5
9F
330
1D
100
AcDbEntity
  8
1
  6
Continuous
370
    50
100
AcDbLine
 10
7.278328172
 20
-4.250137646
 30
0.0
 11
8.721703845
 21
-4.250137646
 31
0.0
  0
LINE
  5
A0
330
1D
100
AcDbEntity
  8
1
  6
Continuous
370
    50
100
AcDbLine
 10
8.721703845
 20
-4.250137646
 30
0.0
 11
9.443391682
 21
-3.000137646
 31
0.0
  0
LINE
  5
A1
330
1D
100
AcDbEntity
  8
1
  6
Continuous
370
    50
100
AcDbLine
 10
16.4
 20
14.99
 30
0.0
 11
14.09206462
 21
14.99
 31
0.0
  0
LINE
  5
A3
330
1D
100
AcDbEntity
  8
SK4
  6
LONGDASH_DASH
370
    25
100
AcDbLine
 10
-21.204337678
 20
0.0
 30
0.0
 11
39.706617708
 21
0.0
 31
0.0
  0
LINE
  5
A4
330
1D
100
AcDbEntity
  8
SK4
  6
LONGDASH_DASH
370
    25
100
AcDbLine
 10
8.0
 20
-15.589798781
 30
0.0
 11
8.0
 21
14.923218978
 31
0.0
  0
LINE
  5
A5
330
1D
100
AcDbEntity
  8
SK4
  6
LONGDASH_DASH
370
    25
100
AcDbLine
 10
23.4
 20
-15.649736351
 30
0.0
 11
23.4
 21
-12.096253644
 31
0.0
  0
LINE
  5
A6
330
1D
100
AcDbEntity
  8
SK4
  6
LONGDASH_DASH
370
    25
100
AcDbLine
 10
23.4
 20
-7.28974009
 30
0.0
 11
23.4
 21
15.453067091
 31
0.0
  0
LINE
  5
A7
330
1D
100
AcDbEntity
  8
SK4
  6
LONGDASH_DASH
370
    25
100
AcDbLine
 10
-7.75
 20
-2.974139203
 30
0.0
 11
-7.75
 21
2.952487645
 31
0.0
  0
LINE
  5
A8
330
1D
100
AcDbEntity
  8
SK4
  6
LONGDASH_DASH
370
    25
100
AcDbLine
 10
4.559227093
 20
-3.000137646
 30
0.0
 11
11.305799889
 21
-3.000137646
 31
0.0
  0
LINE
  5
AA
330
1D
100
AcDbEntity
  8
1
  6
Continuous
370
    50
100
AcDbLine
 10
0.2
 20
14.945
 30
0.0
 11
0.2
 21
-14.945
 31
0.0
  0
LINE
  5
AB
330
1D
100
AcDbEntity
  8
2
  6
Continuous
370
    25
100
AcDbLine
 10
0.0
 20
22.379335995
 30
0.0
 11
0.0
 21
14.745
 31
0.0
  0
LINE
  5
AC
330
1D
100
AcDbEntity
  8
2
  6
Continuous
370
    25
100
AcDbLine
 10
0.0
 20
20.379335995
 30
0.0
 11
3.500000004
 21
20.829335967
 31
0.0
  0
LINE
  5
AD
330
1D
100
AcDbEntity
  8
2
  6
Continuous
370
    25
100
AcDbLine
 10
3.500000004
 20
20.829335967
 30
0.0
 11
3.499999996
 21
19.929335967
 31
0.0
  0
LINE
  5
AE
330
1D
100
AcDbEntity
  8
2
  6
Continuous
370
    25
100
AcDbLine
 10
3.499999996
 20
19.929335967
 30
0.0
 11
0.0
 21
20.379335995
 31
0.0
  0
LINE
  5
AF
330
1D
100
AcDbEntity
  8
2
  6
Continuous
370
    25
100
AcDbLine
 10
39.979141736
 20
22.379335677
 30
0.0
 11
39.979141736
 21
15.580094612
 31
0.0
  0
LINE
  5
B0
330
1D
100
AcDbEntity
  8
2
  6
Continuous
370
    25
100
AcDbLine
 10
39.979141736
 20
20.379335677
 30
0.0
 11
36.479141733
 21
19.929335705
 31
0.0
  0
LINE
  5
B1
330
1D
100
AcDbEntity
  8
2
  6
Continuous
370
    25
100
AcDbLine
 10
36.479141733
 20
19.929335705
 30
0.0
 11
36.47914174
 21
20.829335705
 31
0.0
  0
LINE
  5
B2
330
1D
100
AcDbEntity
  8
2
  6
Continuous
370
    25
100
AcDbLine
 10
36.47914174
 20
20.829335705
 30
0.0
 11
39.979141736
 21
20.379335677
 31
0.0
  0
LINE
  5
B3
330
1D
100
AcDbEntity
  8
2
  6
Continuous
370
    25
100
AcDbLine
 10
3.5
 20
20.379335967
 30
0.0
 11
36.479141736
 21
20.379335705
 31
0.0
  0
TEXT
  5
B4
330
1D
100
AcDbEntity
  8
2
  6
Continuous
370
    25
100
AcDbText
 10
18.324882933
 20
21.879335849
 30
0.0
 40
3.5
  1
40
 50
359.9999995449999
  7
BMG_Text
100
AcDbText
  0
LINE
  5
B5
330
1D
100
AcDbEntity
  8
SK2
100
AcDbLine
 10
-28.649141312
 20
-9.0
 30
0.0
 11
-15.75
 21
-9.0
 31
0.0
  0
LINE
  5
B6
330
1D
100
AcDbEntity
  8
SK2
100
AcDbLine
 10
-26.649141312
 20
-9.0
 30
0.0
 11
-27.099141312
 21
-5.5
 31
0.0
  0
LINE
  5
B7
330
1D
100
AcDbEntity
  8
SK2
100
AcDbLine
 10
-27.099141312
 20
-5.5
 30
0.0
 11
-26.199141312
 21
-5.5
 31
0.0
  0
LINE
  5
B8
330
1D
100
AcDbEntity
  8
SK2
100
AcDbLine
 10
-26.199141312
 20
-5.5
 30
0.0
 11
-26.649141312
 21
-9.0
 31
0.0
  0
LINE
  5
B9
330
1D
100
AcDbEntity
  8
SK2
100
AcDbLine
 10
-28.649141312
 20
9.0
 30
0.0
 11
-15.75
 21
9.0
 31
0.0
  0
LINE
  5
BA
330
1D
100
AcDbEntity
  8
SK2
100
AcDbLine
 10
-26.649141312
 20
9.0
 30
0.0
 11
-26.199141312
 21
5.5
 31
0.0
  0
LINE
  5
BB
330
1D
100
AcDbEntity
  8
SK2
100
AcDbLine
 10
-26.199141312
 20
5.5
 30
0.0
 11
-27.099141312
 21
5.5
 31
0.0
  0
LINE
  5
BC
330
1D
100
AcDbEntity
  8
SK2
100
AcDbLine
 10
-27.099141312
 20
5.5
 30
0.0
 11
-26.649141312
 21
9.0
 31
0.0
  0
LINE
  5
BD
330
1D
100
AcDbEntity
  8
SK2
100
AcDbLine
 10
-26.649141312
 20
-5.5
 30
0.0
 11
-26.649141312
 21
5.5
 31
0.0
  0
TEXT
  5
BE
330
1D
100
AcDbEntity
  8
SK2
100
AcDbText
 10
-28.149141312
 20
0.468124799
 30
0.0
 40
3.5
  1
18
 50
90.0
  7
BMG_Text
100
AcDbText
  0
CIRCLE
  5
BF
330
1D
100
AcDbEntity
  8
SK2
100
AcDbCircle
 10
-29.399141312
 20
-1.781875201
 30
0.0
 40
1.25
  0
LINE
  5
C0
330
1D
100
AcDbEntity
  8
SK2
100
AcDbLine
 10
-28.149141312
 20
-3.031875201
 30
0.0
 11
-30.649141312
 21
-0.531875201
 31
0.0
  0
LINE
  5
C1
330
1D
100
AcDbEntity
  8
2
  6
Continuous
370
    25
100
AcDbLine
 10
0.0
 20
-24.710157032
 30
0.0
 11
0.0
 21
-14.745
 31
0.0
  0
LINE
  5
C2
330
1D
100
AcDbEntity
  8
2
  6
Continuous
370
    25
100
AcDbLine
 10
0.0
 20
-22.710157032
 30
0.0
 11
3.499999997
 21
-22.260157012
 31
0.0
  0
LINE
  5
C3
330
1D
100
AcDbEntity
  8
2
  6
Continuous
370
    25
100
AcDbLine
 10
3.499999997
 20
-22.260157012
 30
0.0
 11
3.500000003
 21
-23.160157012
 31
0.0
  0
LINE
  5
C4
330
1D
100
AcDbEntity
  8
2
  6
Continuous
370
    25
100
AcDbLine
 10
3.500000003
 20
-23.160157012
 30
0.0
 11
0.0
 21
-22.710157032
 31
0.0
  0
LINE
  5
C5
330
1D
100
AcDbEntity
  8
2
  6
Continuous
370
    25
100
AcDbLine
 10
37.0
 20
-24.710156822
 30
0.0
 11
37.0
 21
-12.15
 31
0.0
  0
LINE
  5
C6
330
1D
100
AcDbEntity
  8
2
  6
Continuous
370
    25
100
AcDbLine
 10
37.0
 20
-22.710156822
 30
0.0
 11
33.500000003
 21
-23.160156842
 31
0.0
  0
LINE
  5
C7
330
1D
100
AcDbEntity
  8
2
  6
Continuous
370
    25
100
AcDbLine
 10
33.500000003
 20
-23.160156842
 30
0.0
 11
33.499999997
 21
-22.260156842
 31
0.0
  0
LINE
  5
C8
330
1D
100
AcDbEntity
  8
2
  6
Continuous
370
    25
100
AcDbLine
 10
33.499999997
 20
-22.260156842
 30
0.0
 11
37.0
 21
-22.710156822
 31
0.0
  0
LINE
  5
C9
330
1D
100
AcDbEntity
  8
2
  6
Continuous
370
    25
100
AcDbLine
 10
3.5
 20
-22.710157012
 30
0.0
 11
33.5
 21
-22.710156842
 31
0.0
  0
TEXT
  5
CA
330
1D
100
AcDbEntity
  8
2
  6
Continuous
370
    25
100
AcDbText
 10
17.026718328
 20
-21.210156935
 30
0.0
 40
3.5
  1
37
 50
0.000000325
  7
BMG_Text
100
AcDbText
  0
LINE
  5
CB
330
1D
100
AcDbEntity
  8
2
  6
Continuous
370
    25
100
AcDbLine
 10
-36.718235779
 20
-14.945
 30
0.0
 11
0.2
 21
-14.945
 31
0.0
  0
LINE
  5
CC
330
1D
100
AcDbEntity
  8
2
  6
Continuous
370
    25
100
AcDbLine
 10
-34.718235779
 20
-14.945
 30
0.0
 11
-35.168235779
 21
-11.445
 31
0.0
  0
LINE
  5
CD
330
1D
100
AcDbEntity
  8
2
  6
Continuous
370
    25
100
AcDbLine
 10
-35.168235779
 20
-11.445
 30
0.0
 11
-34.268235779
 21
-11.445
 31
0.0
  0
LINE
  5
CE
330
1D
100
AcDbEntity
  8
2
  6
Continuous
370
    25
100
AcDbLine
 10
-34.268235779
 20
-11.445
 30
0.0
 11
-34.718235779
 21
-14.945
 31
0.0
  0
LINE
  5
CF
330
1D
100
AcDbEntity
  8
2
  6
Continuous
370
    25
100
AcDbLine
 10
-36.718235779
 20
14.945
 30
0.0
 11
0.2
 21
14.945
 31
0.0
  0
LINE
  5
D0
330
1D
100
AcDbEntity
  8
2
  6
Continuous
370
    25
100
AcDbLine
 10
-34.718235779
 20
14.945
 30
0.0
 11
-34.268235779
 21
11.445
 31
0.0
  0
LINE
  5
D1
330
1D
100
AcDbEntity
  8
2
  6
Continuous
370
    25
100
AcDbLine
 10
-34.268235779
 20
11.445
 30
0.0
 11
-35.168235779
 21
11.445
 31
0.0
  0
LINE
  5
D2
330
1D
100
AcDbEntity
  8
2
  6
Continuous
370
    25
100
AcDbLine
 10
-35.168235779
 20
11.445
 30
0.0
 11
-34.718235779
 21
14.945
 31
0.0
  0
LINE
  5
D3
330
1D
100
AcDbEntity
  8
2
  6
Continuous
370
    25
100
AcDbLine
 10
-34.718235779
 20
-11.445
 30
0.0
 11
-34.718235779
 21
11.445
 31
0.0
  0
TEXT
  5
D4
330
1D
100
AcDbEntity
  8
2
  6
Continuous
370
    25
100
AcDbText
 10
-36.218235779
 20
0.276718416
 30
0.0
 40
3.5
  1
30
 50
90.0
  7
BMG_Text
100
AcDbText
  0
CIRCLE
  5
D5
330
1D
100
AcDbEntity
  8
2
  6
Continuous
370
    25
100
AcDbCircle
 10
-37.468235779
 20
-1.973281584
 30
0.0
 40
1.25
  0
LINE
  5
D6
330
1D
100
AcDbEntity
  8
2
  6
Continuous
370
    25
100
AcDbLine
 10
-36.218235779
 20
-3.223281584
 30
0.0
 11
-38.718235779
 21
-0.723281584
 31
0.0
  0
LINE
  5
D7
330
1D
100
AcDbEntity
  8
2
  6
Continuous
370
    25
100
AcDbLine
 10
49.800811422
 20
15.980095058
 30
0.0
 11
39.579141736
 21
15.980094612
 31
0.0
  0
LINE
  5
D8
330
1D
100
AcDbEntity
  8
2
  6
Continuous
370
    25
100
AcDbLine
 10
47.800811422
 20
15.980094971
 30
0.0
 11
48.250811575
 21
12.480094991
 31
0.0
  0
LINE
  5
D9
330
1D
100
AcDbEntity
  8
2
  6
Continuous
370
    25
100
AcDbLine
 10
48.250811575
 20
12.480094991
 30
0.0
 11
47.350811575
 21
12.480094951
 31
0.0
  0
LINE
  5
DA
330
1D
100
AcDbEntity
  8
2
  6
Continuous
370
    25
100
AcDbLine
 10
47.350811575
 20
12.480094951
 30
0.0
 11
47.800811422
 21
15.980094971
 31
0.0
  0
LINE
  5
DB
330
1D
100
AcDbEntity
  8
2
  6
Continuous
370
    25
100
AcDbLine
 10
47.80081219
 20
-1.598009108
 30
0.0
 11
47.800811575
 21
12.480094971
 31
0.0
  0
TEXT
  5
DC
330
1D
100
AcDbEntity
  8
2
  6
Continuous
370
    25
100
AcDbText
 10
46.886764054
 20
-2.941216743
 30
0.0
 40
3.5
  1
32
 50
90.00000250400001
  7
BMG_Text
100
AcDbText
  0
CIRCLE
  5
DD
330
1D
100
AcDbEntity
  8
2
  6
Continuous
370
    25
100
AcDbCircle
 10
45.636764152
 20
-5.191216797
 30
0.0
 40
1.25
  0
LINE
  5
DE
330
1D
100
AcDbEntity
  8
2
  6
Continuous
370
    25
100
AcDbLine
 10
46.886764207
 20
-6.441216743
 30
0.0
 11
44.386764098
 21
-3.941216852
 31
0.0
  0
TEXT
  5
DF
330
1D
100
AcDbEntity
  8
2
  6
Continuous
370
    25
100
AcDbText
 10
46.88676386
 20
1.505345757
 30
0.0
 40
3.5
  1
-42
 50
90.00000250400001
  7
BMG_Text
100
AcDbText
  0
TEXT
  5
E0
330
1D
100
AcDbEntity
  8
SK6
  6
Continuous
370
    35
100
AcDbText
 10
17.086553679
 20
-11.528054478
 30
0.0
 40
3.5
  1
309.301
  7
BMG_Text
100
AcDbText
  0
LINE
  5
17E
330
1D
100
AcDbEntity
  8
NOCUT
100
AcDbLine
 10
0.0
 20
0.0
 30
0.0
 11
0.0
 21
14.745
 31
0.0
  0
LINE
  5
17F
330
1D
100
AcDbEntity
  8
NOCUT
100
AcDbLine
 10
0.0
 20
14.745
 30
0.0
 11
0.2
 21
14.945
 31
0.0
  0
LINE
  5
180
330
1D
100
AcDbEntity
  8
NOCUT
100
AcDbLine
 10
0.2
 20
14.945
 30
0.0
 11
0.599415957
 21
14.945
 31
0.0
  0
LINE
  5
184
330
1D
100
AcDbEntity
  8
NOCUT
100
AcDbLine
 10
5.481153348
 20
14.52
 30
0.0
 11
10.518846652
 21
14.52
 31
0.0
  0
LINE
  5
188
330
1D
100
AcDbEntity
  8
NOCUT
100
AcDbLine
 10
15.2
 20
-12.6
 30
0.0
 11
15.430794999
 21
-12.6
 31
0.0
  0
LINE
  5
18C
330
1D
100
AcDbEntity
  8
NOCUT
100
AcDbLine
 10
31.369205
 20
-12.6
 30
0.0
 11
32.0
 21
-12.6
 31
0.0
  0
LINE
  5
192
330
1D
100
AcDbEntity
  8
NOCUT
100
AcDbLine
 10
0.599415957
 20
14.945
 30
0.0
 11
1.919993094
 21
14.945
 31
0.0
  0
LINE
  5
193
330
1D
100
AcDbEntity
  8
NOCUT
100
AcDbLine
 10
1.919993094
 20
14.945
 30
0.0
 11
2.2
 21
13.9
 31
0.0
  0
LINE
  5
194
330
1D
100
AcDbEntity
  8
NOCUT
100
AcDbLine
 10
2.2
 20
13.9
 30
0.0
 11
3.174316828598135
 21
13.9
 31
0.0
  0
LINE
  5
195
330
1D
100
AcDbEntity
  8
NOCUT
100
AcDbLine
 10
3.174316828598135
 20
13.9
 30
0.0
 11
5.481153348
 21
14.52
 31
0.0
  0
LINE
  5
196
330
1D
100
AcDbEntity
  8
NOCUT
100
AcDbLine
 10
10.518846652
 20
14.52
 30
0.0
 11
12.82568317140187
 21
13.9
 31
0.0
  0
LINE
  5
197
330
1D
100
AcDbEntity
  8
NOCUT
100
AcDbLine
 10
12.82568317140187
 20
13.9
 30
0.0
 11
13.8
 21
13.9
 31
0.0
  0
LINE
  5
198
330
1D
100
AcDbEntity
  8
NOCUT
100
AcDbLine
 10
13.8
 20
13.9
 30
0.0
 11
14.09206462
 21
14.99
 31
0.0
  0
LINE
  5
199
330
1D
100
AcDbEntity
  8
NOCUT
100
AcDbLine
 10
14.09206462
 20
14.99
 30
0.0
 11
16.463130357181
 21
14.99
 31
0.0
  0
LINE
  5
19A
330
1D
100
AcDbEntity
  8
NOCUT
100
AcDbLine
 10
16.463130357181
 20
14.99
 30
0.0
 11
17.702120318
 21
14.4
 31
0.0
  0
LINE
  5
19B
330
1D
100
AcDbEntity
  8
NOCUT
100
AcDbLine
 10
17.702120318
 20
14.4
 30
0.0
 11
29.6
 21
14.4
 31
0.0
  0
LINE
  5
19C
330
1D
100
AcDbEntity
  8
NOCUT
100
AcDbLine
 10
29.6
 20
14.4
 30
0.0
 11
29.6
 21
14.230941662
 31
0.0
  0
LINE
  5
19D
330
1D
100
AcDbEntity
  8
NOCUT
100
AcDbLine
 10
29.6
 20
14.230941662
 30
0.0
 11
29.7
 21
14.243220118
 31
0.0
  0
LINE
  5
19E
330
1D
100
AcDbEntity
  8
NOCUT
100
AcDbLine
 10
29.7
 20
14.243220118
 30
0.0
 11
29.7
 21
14.476431943
 31
0.0
  0
LINE
  5
19F
330
1D
100
AcDbEntity
  8
NOCUT
100
AcDbLine
 10
29.7
 20
14.476431943
 30
0.0
 11
32.59813720738721
 21
14.83227844755404
 31
0.0
  0
LINE
  5
1A0
330
1D
100
AcDbEntity
  8
NOCUT
100
AcDbLine
 10
32.59813720738721
 20
14.83227844755404
 30
0.0
 11
32.64039857
 21
14.99
 31
0.0
  0
LINE
  5
1A1
330
1D
100
AcDbEntity
  8
NOCUT
100
AcDbLine
 10
32.64039857
 20
14.99
 30
0.0
 11
33.88267616927297
 21
14.99
 31
0.0
  0
LINE
  5
1A2
330
1D
100
AcDbEntity
  8
NOCUT
100
AcDbLine
 10
33.88267616927297
 20
14.99
 30
0.0
 11
37.890479522
 21
15.482096375
 31
0.0
  0
LINE
  5
1A3
330
1D
100
AcDbEntity
  8
NOCUT
100
AcDbLine
 10
37.890479522
 20
15.482096375
 30
0.0
 11
37.931824265
 21
15.400952749
 31
0.0
  0
LINE
  5
1A4
330
1D
100
AcDbEntity
  8
NOCUT
100
AcDbLine
 10
37.931824265
 20
15.400952749
 30
0.0
 11
38.478127549
 21
15.468030358
 31
0.0
  0
LINE
  5
1A5
330
1D
100
AcDbEntity
  8
NOCUT
100
AcDbLine
 10
39.195479528
 20
5.598634521
 30
0.0
 11
39.233220684
 21
5.574125128
 31
0.0
  0
LINE
  5
1A6
330
1D
100
AcDbEntity
  8
NOCUT
100
AcDbLine
 10
39.233220684
 20
5.574125128
 30
0.0
 11
39.469292214
 21
5.134524003
 31
0.0
  0
LINE
  5
1A7
330
1D
100
AcDbEntity
  8
NOCUT
100
AcDbLine
 10
39.469292214
 20
5.134524003
 30
0.0
 11
38.2843140105
 21
0.7121251415000005
 31
0.0
  0
LINE
  5
1AA
330
1D
100
AcDbEntity
  8
NOCUT
100
AcDbLine
 10
0.0
 20
0.0
 30
0.0
 11
38.3
 21
0.0
 31
0.0
  0
LINE
  5
1AB
330
1D
100
AcDbEntity
  8
NOCUT
100
AcDbLine
 10
38.3
 20
0.77066605
 30
0.0
 11
38.3
 21
0.0
 31
0.0
  0
LINE
  5
1D0
330
1D
100
AcDbEntity
  8
SK4
100
AcDbLine
 10
26.88257979448281
 20
6.001003726000022
 30
0.0
 11
34.47761234151722
 21
6.001003726000022
 31
0.0
  0
LINE
  5
1D1
330
1D
100
AcDbEntity
  8
SK4
100
AcDbLine
 10
30.68009606799978
 20
2.203487452483046
 30
0.0
 11
30.68009606799978
 21
9.798519999516941
 31
0.0
  0
LINE
  5
1D2
330
1D
100
AcDbEntity
  8
SK4
100
AcDbLine
 10
34.01166954338669
 20
10.93275375300004
 30
0.0
 11
38.82326900461339
 21
10.93275375300004
 31
0.0
  0
LINE
  5
1D3
330
1D
100
AcDbEntity
  8
SK4
100
AcDbLine
 10
36.41746927400004
 20
8.526954022386803
 30
0.0
 11
36.41746927400004
 21
13.33855348361317
 31
0.0
  0
LINE
  5
1DB
330
1D
100
AcDbEntity
  8
3
100
AcDbLine
 10
31.27944292
 20
11.800117336
 30
0.0
 11
30.83240497421128
 21
11.57234012572501
 31
0.0
  0
LINE
  5
1DE
330
1D
100
AcDbEntity
  8
3
100
AcDbLine
 10
30.79614556012334
 20
10.88046928886138
 30
0.0
 11
37.0
 21
6.851639109
 31
0.0
  0
ARC
  5
1DF
330
1D
100
AcDbEntity
  8
3
100
AcDbCircle
 10
31.01400117411085
 20
11.21593751605157
 30
0.0
 40
0.4000000000000003
100
AcDbArc
 50
117.000000000603
 51
237.000000003161
  0
LINE
  5
1E5
330
1D
100
AcDbEntity
  8
3
100
AcDbLine
 10
38.478127549
 20
15.468030358
 30
0.0
 11
39.3890658290908
 21
15.57987951498779
 31
0.0
  0
LINE
  5
1E6
330
1D
100
AcDbEntity
  8
3
100
AcDbLine
 10
39.72517728563264
 20
15.26570207680983
 30
0.0
 11
39.195479528
 21
5.598634521
 31
0.0
  0
ARC
  5
1E7
330
1D
100
AcDbEntity
  8
3
100
AcDbCircle
 10
39.42562663219516
 20
15.28211566950557
 30
0.0
 40
0.3000000000000029
100
AcDbArc
 50
356.8636686613125
 51
97.00000001593641
  0
LINE
  5
1E8
330
1D
100
AcDbEntity
  8
NOCUT
100
AcDbLine
 10
38.478127549
 20
15.468030358
 30
0.0
 11
39.3890658290908
 21
15.57987951498779
 31
0.0
  0
LINE
  5
1E9
330
1D
100
AcDbEntity
  8
NOCUT
100
AcDbLine
 10
39.72517728563264
 20
15.26570207680983
 30
0.0
 11
39.195479528
 21
5.598634520999999
 31
0.0
  0
ARC
  5
1EA
330
1D
100
AcDbEntity
  8
NOCUT
100
AcDbCircle
 10
39.42562663219516
 20
15.28211566950557
 30
0.0
 40
0.3000000000000029
100
AcDbArc
 50
356.8636686613127
 51
97.00000001593632
  0
LINE
  5
1F8
330
1D
100
AcDbEntity
  8
4
100
AcDbLine
 10
8.0
 20
-15.589798781
 30
0.0
 11
8.0
 21
14.923218978
 31
0.0
  0
LINE
  5
1F9
330
1D
100
AcDbEntity
  8
4
100
AcDbLine
 10
4.559227093
 20
-3.000137646
 30
0.0
 11
11.305799889
 21
-3.000137646
 31
0.0
  0
LINE
  5
1FA
330
1D
100
AcDbEntity
  8
4
100
AcDbLine
 10
23.4
 20
15.453067091
 30
0.0
 11
23.4
 21
-7.28974009
 31
0.0
  0
LINE
  5
1FB
330
1D
100
AcDbEntity
  8
4
100
AcDbLine
 10
23.4
 20
-15.649736351
 30
0.0
 11
23.4
 21
-12.096253644
 31
0.0
  0
LINE
  5
1FC
330
1D
100
AcDbEntity
  8
4
100
AcDbLine
 10
30.68009606799978
 20
9.798519999516941
 30
0.0
 11
30.68009606799978
 21
2.203487452483046
 31
0.0
  0
LINE
  5
209
330
1D
100
AcDbEntity
  8
4
100
AcDbLine
 10
26.88257979448281
 20
6.001003726000022
 30
0.0
 11
34.47761234151722
 21
6.001003726000022
 31
0.0
  0
LINE
  5
20A
330
1D
100
AcDbEntity
  8
4
100
AcDbLine
 10
38.82326900461339
 20
10.93275375300004
 30
0.0
 11
34.01166954338669
 21
10.93275375300004
 31
0.0
  0
LINE
  5
20B
330
1D
100
AcDbEntity
  8
4
100
AcDbLine
 10
36.41746927400004
 20
13.33855348361317
 30
0.0
 11
36.41746927400004
 21
8.526954022386803
 31
0.0
  0
LINE
  5
20C
330
1D
100
AcDbEntity
  8
4
100
AcDbLine
 10
39.706617708
 20
0.0
 30
0.0
 11
0.0
 21
0.0
 31
0.0
  0
LINE
  5
21A
102
{ACAD_REACTORS
330
22D
102
}
330
1D
100
AcDbEntity
  8
CUT
  6
Continuous
370
    50
100
AcDbLine
 10
31.27944292028654
 20
11.80011733614602
 30
0.0
 11
37.00000000000004
 21
7.000000000000043
 31
0.0
  0
LINE
  5
21B
102
{ACAD_REACTORS
330
22D
102
}
330
1D
100
AcDbEntity
  8
CUT
  6
Continuous
370
    50
100
AcDbLine
 10
37.00000000000004
 20
7.000000000000043
 30
0.0
 11
37.00000000000004
 21
6.851639109000043
 31
0.0
  0
LINE
  5
21C
102
{ACAD_REACTORS
330
22D
102
}
330
1D
100
AcDbEntity
  8
CUT
  6
Continuous
370
    50
100
AcDbLine
 10
37.00000000000004
 20
6.851639109000043
 30
0.0
 11
38.85818675200004
 21
5.644918523000044
 31
0.0
  0
ARC
  5
21D
102
{ACAD_REACTORS
330
22D
102
}
330
1D
100
AcDbEntity
  8
CUT
  6
Continuous
370
    50
100
AcDbCircle
 10
39.07604236600004
 20
5.980386750000044
 30
0.0
 40
0.4
100
AcDbArc
 50
237.000000000002
 51
357.0000000000001
  0
LINE
  5
21E
102
{ACAD_REACTORS
330
22D
102
}
330
1D
100
AcDbEntity
  8
CUT
  6
Continuous
370
    50
100
AcDbLine
 10
39.47549417900005
 20
5.959452368000044
 30
0.0
 11
39.97859355000004
 21
15.55916022900004
 31
0.0
  0
ARC
  5
21F
102
{ACAD_REACTORS
330
22D
102
}
330
1D
100
AcDbEntity
  8
CUT
  6
Continuous
370
    50
100
AcDbCircle
 10
39.57914173600004
 20
15.58009461200004
 30
0.0
 40
0.4
100
AcDbArc
 50
357.0000000000001
 51
117.0000000050013
  0
LINE
  5
220
102
{ACAD_REACTORS
330
22D
102
}
330
1D
100
AcDbEntity
  8
CUT
  6
Continuous
370
    50
100
AcDbLine
 10
39.39754553700004
 20
15.93649722100004
 30
0.0
 11
31.27944292000004
 21
11.80011733600004
 31
0.0
  0
CIRCLE
  5
221
102
{ACAD_REACTORS
330
22D
102
}
330
1D
100
AcDbEntity
  8
1
  6
Continuous
370
    50
100
AcDbCircle
 10
36.41746927400004
 20
10.93275375300004
 30
0.0
 40
2.0
  0
HATCH
  5
22D
330
1D
100
AcDbEntity
  8
7
100
AcDbHatch
 10
0.0
 20
0.0
 30
0.0
210
0.0
220
0.0
230
1.0
  2
ANSI31
 70
     0
 71
     1
 91
        2
 92
        7
 72
     1
 73
     1
 93
        7
 10
39.47549417967642
 20
5.95945236762716
 42
0.0
 10
39.97859354992641
 20
15.55916022937716
 42
0.5773502695315879
 10
39.39754553630485
 20
15.93649722149467
 42
0.0
 10
31.27944292021492
 20
11.80011733610953
 42
0.0
 10
37.00000000000004
 20
7.000000000000043
 42
0.0
 10
37.00000000000004
 20
6.851639109000043
 42
0.0
 10
38.85818675199554
 20
5.64491852286641
 42
0.5773502696918343
 97
        7
330
21E
330
21F
330
220
330
21A
330
21B
330
21C
330
21D
 92
       22
 72
     1
 73
     1
 93
        2
 10
34.41746927400004
 20
10.93275375300004
 42
1.0
 10
38.41746927400004
 20
10.93275375300004
 42
1.0
 97
        1
330
221
 75
     0
 76
     1
 52
0.0
 41
5.0
 77
     0
 78
     1
 53
45.0
 43
-30.33164899873627
 44
-16.24929426953381
 45
-0.4419417382415922
 46
0.4419417382415922
 79
     0
 47
0.0
 98
        2
 10
38.65713026531911
 20
12.71358878730743
 10
38.65713026531911
 20
12.71358878730743
1001
ACAD
1010
0.0
1020
0.0
1030
0.0
  0
LWPOLYLINE
  5
231
330
1D
100
AcDbEntity
  8
INFTOTAL
100
AcDbPolyline
 90
        4
 70
     1
 43
0.0
 10
-43.74229079319485
 20
-30.97523759456371
 10
-43.74229079319485
 20
33.72968886817831
 10
52.83932738280983
 20
33.72968886817831
 10
52.83932738280983
 20
-30.97523759456371
  0
LINE
  5
235
330
1D
100
AcDbEntity
  8
SK1
100
AcDbLine
 10
0.000000000001089
 20
-8.900000000000817
 30
0.0
 11
0.0000000000010895
 21
8.900000000000817
 31
0.0
  0
ENDSEC
  0
SECTION
  2
OBJECTS
  0
DICTIONARY
  5
C
330
0
100
AcDbDictionary
281
     1
  3
ACAD_DETAILVIEWSTYLE
350
1AF
  3
ACAD_GROUP
350
D
  3
ACAD_LAYOUT
350
1A
  3
ACAD_MLINESTYLE
350
17
  3
ACAD_PLOTSETTINGS
350
19
  3
ACAD_PLOTSTYLENAME
350
E
  3
ACAD_SCALELIST
350
E7
  3
ACAD_SECTIONVIEWSTYLE
350
1B0
  3
AcDbVariableDictionary
350
129
  3
APPDATA
350
177
  3
DWGPROPS
350
23A
  0
DICTIONARY
  5
178
330
2
100
AcDbDictionary
280
     1
281
     1
  3
ACAD_LAYERSTATES
360
179
  3
ACLYDICTIONARY
360
228
  0
DICTIONARY
  5
22B
330
1D
100
AcDbDictionary
280
     1
281
     1
  3
ACAD_SORTENTS
360
22C
  0
DICTIONARY
  5
1AF
102
{ACAD_REACTORS
330
C
102
}
330
C
100
AcDbDictionary
281
     1
  0
DICTIONARY
  5
D
102
{ACAD_REACTORS
330
C
102
}
330
C
100
AcDbDictionary
281
     1
  0
DICTIONARY
  5
1A
102
{ACAD_REACTORS
330
C
102
}
330
C
100
AcDbDictionary
281
     1
  3
Layout1
350
1C
  3
Model
350
1E
  0
DICTIONARY
  5
17
102
{ACAD_REACTORS
330
C
102
}
330
C
100
AcDbDictionary
281
     1
  3
Standard
350
18
  0
DICTIONARY
  5
19
102
{ACAD_REACTORS
330
C
102
}
330
C
100
AcDbDictionary
281
     1
  0
ACDBDICTIONARYWDFLT
  5
E
102
{ACAD_REACTORS
330
C
102
}
330
C
100
AcDbDictionary
281
     1
  3
Normal
350
F
100
AcDbDictionaryWithDefault
340
F
  0
DICTIONARY
  5
E7
102
{ACAD_REACTORS
330
C
102
}
330
C
100
AcDbDictionary
281
     1
  3
A0
350
E8
  3
A1
350
E9
  3
A2
350
EA
  3
A3
350
EB
  3
A4
350
EC
  3
A5
350
ED
  3
A6
350
EE
  3
A7
350
EF
  3
A8
350
F0
  3
A9
350
F1
  3
B0
350
F2
  3
B1
350
F3
  3
B2
350
F4
  3
B3
350
F5
  3
B4
350
F6
  3
B5
350
F7
  3
B6
350
F8
  3
B7
350
F9
  3
B8
350
FA
  3
B9
350
FB
  3
C0
350
FC
  3
C1
350
FD
  3
C2
350
FE
  3
C3
350
FF
  3
C4
350
100
  3
C5
350
101
  3
C6
350
102
  3
C7
350
103
  3
C8
350
104
  3
C9
350
105
  3
D0
350
106
  3
D1
350
107
  3
D2
350
108
  0
DICTIONARY
  5
1B0
102
{ACAD_REACTORS
330
C
102
}
330
C
100
AcDbDictionary
281
     1
  0
DICTIONARY
  5
129
102
{ACAD_REACTORS
330
C
102
}
330
C
100
AcDbDictionary
281
     1
  3
DIMASSOC
350
12D
  3
HIDETEXT
350
12E
  0
DICTIONARY
  5
177
102
{ACAD_REACTORS
330
C
102
}
330
C
100
AcDbDictionary
281
     1
  0
XRECORD
  5
23A
102
{ACAD_REACTORS
330
C
102
}
330
C
100
AcDbXrecord
280
     1
  1
DWGPROPS COOKIE
  2

  3

  4

  6

  7

  8
matthias.ochs
  9

300
=
301
=
302
=
303
=
304
=
305
=
306
=
307
=
308
=
309
=
 40
0.0
 41
2458327.465977998
 42
2458589.502461354
  1

 90
        0
  0
DICTIONARY
  5
179
102
{ACAD_REACTORS
330
178
102
}
330
178
100
AcDbDictionary
281
     1
  0
DICTIONARY
  5
228
102
{ACAD_REACTORS
330
178
102
}
330
178
100
AcDbDictionary
281
     1
1001
ACAD
1000
<All
  0
SORTENTSTABLE
  5
22C
102
{ACAD_REACTORS
330
22B
102
}
330
22B
100
AcDbSortentsTable
330
1D
331
0
  5
21A
331
21A
  5
21C
331
21B
  5
21D
331
21C
  5
21E
331
21D
  5
21F
331
21E
  5
220
331
21F
  5
221
331
220
  5
22A
331
221
  5
22D
331
22D
  5
21B
  0
LAYOUT
  5
1C
102
{ACAD_REACTORS
330
1A
102
}
330
1A
100
AcDbPlotSettings
  1

  2
none_device
  4

  6

 40
0.0
 41
0.0
 42
0.0
 43
0.0
 44
0.0
 45
0.0
 46
0.0
 47
0.0
 48
0.0
 49
0.0
140
0.0
141
0.0
142
1.0
143
1.0
 70
   688
 72
     0
 73
     0
 74
     5
  7

 75
    16
147
1.0
148
0.0
149
0.0
100
AcDbLayout
  1
Layout1
 70
     1
 71
     1
 10
0.0
 20
0.0
 11
12.0
 21
9.0
 12
0.0
 22
0.0
 32
0.0
 14
1.000000000000000E+20
 24
1.000000000000000E+20
 34
1.000000000000000E+20
 15
-1.000000000000000E+20
 25
-1.000000000000000E+20
 35
-1.000000000000000E+20
146
0.0
 13
0.0
 23
0.0
 33
0.0
 16
1.0
 26
0.0
 36
0.0
 17
0.0
 27
1.0
 37
0.0
 76
     0
330
1B
  0
LAYOUT
  5
1E
102
{ACAD_REACTORS
330
1A
102
}
330
1A
100
AcDbPlotSettings
  1

  2
none_device
  4

  6

 40
0.0
 41
0.0
 42
0.0
 43
0.0
 44
0.0
 45
0.0
 46
0.0
 47
0.0
 48
0.0
 49
0.0
140
0.0
141
0.0
142
1.0
143
1.0
 70
  1712
 72
     0
 73
     0
 74
     0
  7

 75
     0
147
1.0
148
0.0
149
0.0
100
AcDbLayout
  1
Model
 70
     1
 71
     0
 10
0.0
 20
0.0
 11
12.0
 21
9.0
 12
0.0
 22
0.0
 32
0.0
 14
-43.74229079319486
 24
-30.9752375945637
 34
0.0
 15
52.83932738280983
 25
33.72968886817831
 35
0.0
146
0.0
 13
0.0
 23
0.0
 33
0.0
 16
1.0
 26
0.0
 36
0.0
 17
0.0
 27
1.0
 37
0.0
 76
     0
330
1D
331
E1
  0
MLINESTYLE
  5
18
102
{ACAD_REACTORS
330
17
102
}
330
17
100
AcDbMlineStyle
  2
Standard
 70
     0
  3

 62
   256
 51
90.0
 52
90.0
 71
     2
 49
0.5
 62
   256
  6
BYLAYER
 49
-0.5
 62
   256
  6
BYLAYER
  0
ACDBPLACEHOLDER
  5
F
102
{ACAD_REACTORS
330
E
102
}
330
E
  0
SCALE
  5
E8
102
{ACAD_REACTORS
330
E7
102
}
330
E7
100
AcDbScale
 70
     0
300
1:1
140
1.0
141
1.0
290
     1
  0
SCALE
  5
E9
102
{ACAD_REACTORS
330
E7
102
}
330
E7
100
AcDbScale
 70
     0
300
1:2
140
1.0
141
2.0
290
     0
  0
SCALE
  5
EA
102
{ACAD_REACTORS
330
E7
102
}
330
E7
100
AcDbScale
 70
     0
300
1:4
140
1.0
141
4.0
290
     0
  0
SCALE
  5
EB
102
{ACAD_REACTORS
330
E7
102
}
330
E7
100
AcDbScale
 70
     0
300
1:5
140
1.0
141
5.0
290
     0
  0
SCALE
  5
EC
102
{ACAD_REACTORS
330
E7
102
}
330
E7
100
AcDbScale
 70
     0
300
1:8
140
1.0
141
8.0
290
     0
  0
SCALE
  5
ED
102
{ACAD_REACTORS
330
E7
102
}
330
E7
100
AcDbScale
 70
     0
300
1:10
140
1.0
141
10.0
290
     0
  0
SCALE
  5
EE
102
{ACAD_REACTORS
330
E7
102
}
330
E7
100
AcDbScale
 70
     0
300
1:16
140
1.0
141
16.0
290
     0
  0
SCALE
  5
EF
102
{ACAD_REACTORS
330
E7
102
}
330
E7
100
AcDbScale
 70
     0
300
1:20
140
1.0
141
20.0
290
     0
  0
SCALE
  5
F0
102
{ACAD_REACTORS
330
E7
102
}
330
E7
100
AcDbScale
 70
     0
300
1:30
140
1.0
141
30.0
290
     0
  0
SCALE
  5
F1
102
{ACAD_REACTORS
330
E7
102
}
330
E7
100
AcDbScale
 70
     0
300
1:40
140
1.0
141
40.0
290
     0
  0
SCALE
  5
F2
102
{ACAD_REACTORS
330
E7
102
}
330
E7
100
AcDbScale
 70
     0
300
1:50
140
1.0
141
50.0
290
     0
  0
SCALE
  5
F3
102
{ACAD_REACTORS
330
E7
102
}
330
E7
100
AcDbScale
 70
     0
300
1:100
140
1.0
141
100.0
290
     0
  0
SCALE
  5
F4
102
{ACAD_REACTORS
330
E7
102
}
330
E7
100
AcDbScale
 70
     0
300
2:1
140
2.0
141
1.0
290
     0
  0
SCALE
  5
F5
102
{ACAD_REACTORS
330
E7
102
}
330
E7
100
AcDbScale
 70
     0
300
4:1
140
4.0
141
1.0
290
     0
  0
SCALE
  5
F6
102
{ACAD_REACTORS
330
E7
102
}
330
E7
100
AcDbScale
 70
     0
300
8:1
140
8.0
141
1.0
290
     0
  0
SCALE
  5
F7
102
{ACAD_REACTORS
330
E7
102
}
330
E7
100
AcDbScale
 70
     0
300
10:1
140
10.0
141
1.0
290
     0
  0
SCALE
  5
F8
102
{ACAD_REACTORS
330
E7
102
}
330
E7
100
AcDbScale
 70
     0
300
100:1
140
100.0
141
1.0
290
     0
  0
SCALE
  5
F9
102
{ACAD_REACTORS
330
E7
102
}
330
E7
100
AcDbScale
 70
     0
300
1/128" = 1'-0"
140
0.0078125
141
12.0
290
     0
  0
SCALE
  5
FA
102
{ACAD_REACTORS
330
E7
102
}
330
E7
100
AcDbScale
 70
     0
300
1/64" = 1'-0"
140
0.015625
141
12.0
290
     0
  0
SCALE
  5
FB
102
{ACAD_REACTORS
330
E7
102
}
330
E7
100
AcDbScale
 70
     0
300
1/32" = 1'-0"
140
0.03125
141
12.0
290
     0
  0
SCALE
  5
FC
102
{ACAD_REACTORS
330
E7
102
}
330
E7
100
AcDbScale
 70
     0
300
1/16" = 1'-0"
140
0.0625
141
12.0
290
     0
  0
SCALE
  5
FD
102
{ACAD_REACTORS
330
E7
102
}
330
E7
100
AcDbScale
 70
     0
300
3/32" = 1'-0"
140
0.09375
141
12.0
290
     0
  0
SCALE
  5
FE
102
{ACAD_REACTORS
330
E7
102
}
330
E7
100
AcDbScale
 70
     0
300
1/8" = 1'-0"
140
0.125
141
12.0
290
     0
  0
SCALE
  5
FF
102
{ACAD_REACTORS
330
E7
102
}
330
E7
100
AcDbScale
 70
     0
300
3/16" = 1'-0"
140
0.1875
141
12.0
290
     0
  0
SCALE
  5
100
102
{ACAD_REACTORS
330
E7
102
}
330
E7
100
AcDbScale
 70
     0
300
1/4" = 1'-0"
140
0.25
141
12.0
290
     0
  0
SCALE
  5
101
102
{ACAD_REACTORS
330
E7
102
}
330
E7
100
AcDbScale
 70
     0
300
3/8" = 1'-0"
140
0.375
141
12.0
290
     0
  0
SCALE
  5
102
102
{ACAD_REACTORS
330
E7
102
}
330
E7
100
AcDbScale
 70
     0
300
1/2" = 1'-0"
140
0.5
141
12.0
290
     0
  0
SCALE
  5
103
102
{ACAD_REACTORS
330
E7
102
}
330
E7
100
AcDbScale
 70
     0
300
3/4" = 1'-0"
140
0.75
141
12.0
290
     0
  0
SCALE
  5
104
102
{ACAD_REACTORS
330
E7
102
}
330
E7
100
AcDbScale
 70
     0
300
1" = 1'-0"
140
1.0
141
12.0
290
     0
  0
SCALE
  5
105
102
{ACAD_REACTORS
330
E7
102
}
330
E7
100
AcDbScale
 70
     0
300
1-1/2" = 1'-0"
140
1.5
141
12.0
290
     0
  0
SCALE
  5
106
102
{ACAD_REACTORS
330
E7
102
}
330
E7
100
AcDbScale
 70
     0
300
3" = 1'-0"
140
3.0
141
12.0
290
     0
  0
SCALE
  5
107
102
{ACAD_REACTORS
330
E7
102
}
330
E7
100
AcDbScale
 70
     0
300
6" = 1'-0"
140
6.0
141
12.0
290
     0
  0
SCALE
  5
108
102
{ACAD_REACTORS
330
E7
102
}
330
E7
100
AcDbScale
 70
     0
300
1'-0" = 1'-0"
140
12.0
141
12.0
290
     0
  0
DICTIONARYVAR
  5
12D
102
{ACAD_REACTORS
330
129
102
}
330
129
100
DictionaryVariables
280
     0
  1
2
  0
DICTIONARYVAR
  5
12E
102
{ACAD_REACTORS
330
129
102
}
330
129
100
DictionaryVariables
280
     0
  1
1
  0
ENDSEC
  0
EOF
