ISO-10303-21;
HEADER;
FILE_DESCRIPTION (( 'STEP AP203' ),
    '1' );
FILE_NAME ('15.250.309.1.STEP',
    '2020-08-03T22:02:32',
    ( '' ),
    ( '' ),
    'SwSTEP 2.0',
    'SolidWorks 2020',
    '' );
FILE_SCHEMA (( 'CONFIG_CONTROL_DESIGN' ));
ENDSEC;

DATA;
#1 = DIRECTION ( 'NONE',  ( 1.000000000000000000, 0.0000000000000000000, 0.0000000000000000000 ) ) ;
#2 = ORIENTED_EDGE ( 'NONE', *, *, #312, .T. ) ;
#3 = CARTESIAN_POINT ( 'NONE',  ( 0.0000000000000000000, 14.00000000000000000, 0.0000000000000000000 ) ) ;
#4 = ORIENTED_EDGE ( 'NONE', *, *, #189, .F. ) ;
#5 = APPROVAL_DATE_TIME ( #153, #238 ) ;
#6 = MANIFOLD_SOLID_BREP ( 'CAD_(STEP)_23112.0660.stp', #203 ) ;
#7 = ORIENTED_EDGE ( 'NONE', *, *, #312, .F. ) ;
#8 = ORIENTED_EDGE ( 'NONE', *, *, #113, .T. ) ;
#9 = EDGE_CURVE ( 'NONE', #237, #216, #179, .T. ) ;
#10 = CIRCLE ( 'NONE', #39, 12.34999999999999964 ) ;
#11 = CIRCLE ( 'NONE', #85, 8.000000000000000000 ) ;
#12 = EDGE_LOOP ( 'NONE', ( #220, #17, #155, #123, #324 ) ) ;
#13 = PERSON_AND_ORGANIZATION ( #102, #359 ) ;
#14 = ORIENTED_EDGE ( 'NONE', *, *, #43, .F. ) ;
#15 = PRODUCT_RELATED_PRODUCT_CATEGORY ( 'detail', '', ( #111 ) ) ;
#16 = CALENDAR_DATE ( 2020, 3, 8 ) ;
#17 = ORIENTED_EDGE ( 'NONE', *, *, #205, .T. ) ;
#18 = AXIS2_PLACEMENT_3D ( 'NONE', #133, #73, #248 ) ;
#19 = FACE_OUTER_BOUND ( 'NONE', #184, .T. ) ;
#20 = COORDINATED_UNIVERSAL_TIME_OFFSET ( 6, 0, .BEHIND. ) ;
#21 = ORIENTED_EDGE ( 'NONE', *, *, #242, .T. ) ;
#22 = DIRECTION ( 'NONE',  ( 0.0000000000000000000, 1.000000000000000000, 0.0000000000000000000 ) ) ;
#23 = FACE_OUTER_BOUND ( 'NONE', #234, .T. ) ;
#24 = AXIS2_PLACEMENT_3D ( 'NONE', #83, #202, #168 ) ;
#25 = CC_DESIGN_APPROVAL ( #79, ( #285 ) ) ;
#26 = CARTESIAN_POINT ( 'NONE',  ( 8.000000000000000000, 7.000000000000000000, 9.796850830579020038E-16 ) ) ;
#27 = DIRECTION ( 'NONE',  ( 0.0000000000000000000, 1.000000000000000000, 0.0000000000000000000 ) ) ;
#28 = DIRECTION ( 'NONE',  ( 0.0000000000000000000, 1.000000000000000000, 0.0000000000000000000 ) ) ;
#29 = CIRCLE ( 'NONE', #24, 8.000000000000000000 ) ;
#30 = LINE ( 'NONE', #146, #233 ) ;
#31 = CARTESIAN_POINT ( 'NONE',  ( 0.0000000000000000000, 0.0000000000000000000, 0.0000000000000000000 ) ) ;
#32 = VERTEX_POINT ( 'NONE', #301 ) ;
#33 = CALENDAR_DATE ( 2020, 3, 8 ) ;
#34 = PRODUCT_DEFINITION_SHAPE ( 'NONE', 'NONE',  #53 ) ;
#35 = DIRECTION ( 'NONE',  ( 1.000000000000000000, 0.0000000000000000000, 0.0000000000000000000 ) ) ;
#36 = ADVANCED_FACE ( 'NONE', ( #250, #304 ), #188, .T. ) ;
#37 = MECHANICAL_CONTEXT ( 'NONE', #107, 'mechanical' ) ;
#38 = ORIENTED_EDGE ( 'NONE', *, *, #74, .T. ) ;
#39 = AXIS2_PLACEMENT_3D ( 'NONE', #46, #334, #357 ) ;
#40 = CC_DESIGN_APPROVAL ( #101, ( #198 ) ) ;
#41 = SHAPE_DEFINITION_REPRESENTATION ( #34, #135 ) ;
#42 = DIRECTION ( 'NONE',  ( 0.2588190451025210170, -0.9659258262890680902, 3.169514471227869555E-17 ) ) ;
#43 = EDGE_CURVE ( 'NONE', #330, #121, #159, .T. ) ;
#44 = APPROVAL_STATUS ( 'not_yet_approved' ) ;
#45 = ORIENTED_EDGE ( 'NONE', *, *, #205, .F. ) ;
#46 = CARTESIAN_POINT ( 'NONE',  ( 0.0000000000000000000, 0.0000000000000000000, 0.0000000000000000000 ) ) ;
#47 = VERTEX_POINT ( 'NONE', #283 ) ;
#48 = CARTESIAN_POINT ( 'NONE',  ( 2.112784773522500124E-15, 14.00000000000000000, -10.00000000000000000 ) ) ;
#49 = EDGE_CURVE ( 'NONE', #121, #269, #10, .T. ) ;
#50 = DIRECTION ( 'NONE',  ( 1.000000000000000000, 0.0000000000000000000, 0.0000000000000000000 ) ) ;
#51 = CARTESIAN_POINT ( 'NONE',  ( 0.0000000000000000000, 16.00000000000000000, 0.0000000000000000000 ) ) ;
#52 = LOCAL_TIME ( 17, 2, 32.00000000000000000, #274 ) ;
#53 = PRODUCT_DEFINITION ( 'UNKNOWN', '', #198, #82 ) ;
#54 = CARTESIAN_POINT ( 'NONE',  ( -9.150666335777661121E-17, 14.00000000000000000, 8.000000000000000000 ) ) ;
#55 = DIRECTION ( 'NONE',  ( 0.0000000000000000000, 1.000000000000000000, 0.0000000000000000000 ) ) ;
#56 = CARTESIAN_POINT ( 'NONE',  ( 0.0000000000000000000, 16.00000000000000000, 0.0000000000000000000 ) ) ;
#57 = ORIENTED_EDGE ( 'NONE', *, *, #43, .T. ) ;
#58 = APPLICATION_PROTOCOL_DEFINITION ( 'international standard', 'config_control_design', 1994, #107 ) ;
#59 = VERTEX_POINT ( 'NONE', #331 ) ;
#60 = AXIS2_PLACEMENT_3D ( 'NONE', #48, #68, #222 ) ;
#61 = EDGE_CURVE ( 'NONE', #206, #268, #270, .T. ) ;
#62 = EDGE_LOOP ( 'NONE', ( #265, #295 ) ) ;
#63 = DIRECTION ( 'NONE',  ( 1.000000000000000000, 0.0000000000000000000, 0.0000000000000000000 ) ) ;
#64 = EDGE_LOOP ( 'NONE', ( #355, #164, #88, #278, #177 ) ) ;
#65 = APPROVAL_DATE_TIME ( #221, #79 ) ;
#66 = DIRECTION ( 'NONE',  ( 1.000000000000000000, 0.0000000000000000000, 0.0000000000000000000 ) ) ;
#67 = ADVANCED_FACE ( 'NONE', ( #19 ), #310, .T. ) ;
#68 = DIRECTION ( 'NONE',  ( -1.000000000000000000, 0.0000000000000000000, -1.224606353822379970E-16 ) ) ;
#69 = PERSON_AND_ORGANIZATION_ROLE ( 'creator' ) ;
#70 = CARTESIAN_POINT ( 'NONE',  ( 0.0000000000000000000, 9.212916512459889518, 0.0000000000000000000 ) ) ;
#71 = UNCERTAINTY_MEASURE_WITH_UNIT (LENGTH_MEASURE( 1.000000000000000082E-05 ), #296, 'distance_accuracy_value', 'NONE');
#72 = DATE_AND_TIME ( #16, #122 ) ;
#73 = DIRECTION ( 'NONE',  ( 0.0000000000000000000, 1.000000000000000000, 0.0000000000000000000 ) ) ;
#74 = EDGE_CURVE ( 'NONE', #237, #59, #256, .T. ) ;
#75 = CC_DESIGN_APPROVAL ( #238, ( #53 ) ) ;
#76 = ORIENTED_EDGE ( 'NONE', *, *, #358, .F. ) ;
#77 = DIRECTION ( 'NONE',  ( 0.0000000000000000000, 1.000000000000000000, 0.0000000000000000000 ) ) ;
#78 = DIRECTION ( 'NONE',  ( 0.0000000000000000000, 1.000000000000000000, 0.0000000000000000000 ) ) ;
#79 = APPROVAL ( #44, 'UNSPECIFIED' ) ;
#80 = DIRECTION ( 'NONE',  ( -1.224606353822380216E-16, 0.0000000000000000000, 1.000000000000000000 ) ) ;
#81 = CARTESIAN_POINT ( 'NONE',  ( 0.0000000000000000000, 7.000000000000000000, 0.0000000000000000000 ) ) ;
#82 = DESIGN_CONTEXT ( 'detailed design', #207, 'design' ) ;
#83 = CARTESIAN_POINT ( 'NONE',  ( 0.0000000000000000000, 14.00000000000000000, 0.0000000000000000000 ) ) ;
#84 = DIRECTION ( 'NONE',  ( 0.0000000000000000000, -1.000000000000000000, 0.0000000000000000000 ) ) ;
#85 = AXIS2_PLACEMENT_3D ( 'NONE', #3, #147, #322 ) ;
#86 = EDGE_LOOP ( 'NONE', ( #21, #148, #57, #212 ) ) ;
#87 =( NAMED_UNIT ( * ) SI_UNIT ( $, .STERADIAN. ) SOLID_ANGLE_UNIT ( ) );
#88 = ORIENTED_EDGE ( 'NONE', *, *, #74, .F. ) ;
#89 = VECTOR ( 'NONE', #28, 1000.000000000000000 ) ;
#90 = DIRECTION ( 'NONE',  ( 0.0000000000000000000, 1.000000000000000000, 0.0000000000000000000 ) ) ;
#91 = ORIENTED_EDGE ( 'NONE', *, *, #131, .T. ) ;
#92 = DATE_AND_TIME ( #277, #52 ) ;
#93 = DIRECTION ( 'NONE',  ( 1.000000000000000000, 0.0000000000000000000, 0.0000000000000000000 ) ) ;
#94 = ORIENTED_EDGE ( 'NONE', *, *, #273, .T. ) ;
#95 = AXIS2_PLACEMENT_3D ( 'NONE', #56, #228, #50 ) ;
#96 = TOROIDAL_SURFACE ( 'NONE', #315, 10.00000000000000000, 2.000000000000000000 ) ;
#97 = DATE_AND_TIME ( #194, #302 ) ;
#98 = ORIENTED_EDGE ( 'NONE', *, *, #282, .F. ) ;
#99 = APPROVAL_ROLE ( '' ) ;
#100 = EDGE_LOOP ( 'NONE', ( #261, #8, #14, #115 ) ) ;
#101 = APPROVAL ( #333, 'UNSPECIFIED' ) ;
#102 = PERSON ( 'UNSPECIFIED', 'UNSPECIFIED', 'UNSPECIFIED', ('UNSPECIFIED'), ('UNSPECIFIED'), ('UNSPECIFIED') ) ;
#103 = LINE ( 'NONE', #263, #252 ) ;
#104 = DIRECTION ( 'NONE',  ( 0.0000000000000000000, 1.000000000000000000, 0.0000000000000000000 ) ) ;
#105 = ADVANCED_FACE ( 'NONE', ( #243 ), #356, .T. ) ;
#106 = CYLINDRICAL_SURFACE ( 'NONE', #143, 8.000000000000000000 ) ;
#107 = APPLICATION_CONTEXT ( 'configuration controlled 3d designs of mechanical parts and assemblies' ) ;
#108 = CARTESIAN_POINT ( 'NONE',  ( 13.00000000000000000, 9.212916512459889518, 1.591988259969089844E-15 ) ) ;
#109 = CARTESIAN_POINT ( 'NONE',  ( 13.00000000000000000, 16.00000000000000000, 0.0000000000000000000 ) ) ;
#110 = APPROVAL_PERSON_ORGANIZATION ( #178, #238, #294 ) ;
#111 = PRODUCT ( '15.250.309.1', '15.250.309.1', '', ( #37 ) ) ;
#112 = CARTESIAN_POINT ( 'NONE',  ( 1.867863502758029800E-15, 14.00000000000000000, -8.000000000000000000 ) ) ;
#113 = EDGE_CURVE ( 'NONE', #269, #121, #262, .T. ) ;
#114 = PERSON_AND_ORGANIZATION_ROLE ( 'design_owner' ) ;
#115 = ORIENTED_EDGE ( 'NONE', *, *, #217, .F. ) ;
#116 = CIRCLE ( 'NONE', #229, 13.00000000000000000 ) ;
#117 = CARTESIAN_POINT ( 'NONE',  ( -8.000000000000000000, 0.0000000000000000000, -9.796850830579020038E-16 ) ) ;
#118 = ADVANCED_FACE ( 'NONE', ( #185 ), #365, .T. ) ;
#119 = PERSON_AND_ORGANIZATION ( #102, #359 ) ;
#120 = VERTEX_POINT ( 'NONE', #109 ) ;
#121 = VERTEX_POINT ( 'NONE', #286 ) ;
#122 = LOCAL_TIME ( 17, 2, 32.00000000000000000, #299 ) ;
#123 = ORIENTED_EDGE ( 'NONE', *, *, #318, .F. ) ;
#124 = EDGE_CURVE ( 'NONE', #330, #181, #151, .T. ) ;
#125 = COORDINATED_UNIVERSAL_TIME_OFFSET ( 6, 0, .BEHIND. ) ;
#126 = DIRECTION ( 'NONE',  ( 0.0000000000000000000, 1.000000000000000000, 0.0000000000000000000 ) ) ;
#127 = CALENDAR_DATE ( 2020, 3, 8 ) ;
#128 = ORIENTED_EDGE ( 'NONE', *, *, #267, .T. ) ;
#129 = SECURITY_CLASSIFICATION_LEVEL ( 'unclassified' ) ;
#130 = DIRECTION ( 'NONE',  ( 1.000000000000000000, 0.0000000000000000000, 0.0000000000000000000 ) ) ;
#131 = EDGE_CURVE ( 'NONE', #120, #32, #163, .T. ) ;
#132 = ORIENTED_EDGE ( 'NONE', *, *, #346, .T. ) ;
#133 = CARTESIAN_POINT ( 'NONE',  ( 0.0000000000000000000, 14.00000000000000000, 0.0000000000000000000 ) ) ;
#134 = EDGE_CURVE ( 'NONE', #361, #206, #293, .T. ) ;
#135 = ADVANCED_BREP_SHAPE_REPRESENTATION ( '15.250.309.1', ( #6, #364 ), #152 ) ;
#136 = AXIS2_PLACEMENT_3D ( 'NONE', #169, #316, #287 ) ;
#137 = APPROVAL_PERSON_ORGANIZATION ( #161, #79, #244 ) ;
#138 = DIRECTION ( 'NONE',  ( 0.0000000000000000000, 1.000000000000000000, 0.0000000000000000000 ) ) ;
#139 = CARTESIAN_POINT ( 'NONE',  ( 13.00000000000000000, 2.425833024919769709, 0.0000000000000000000 ) ) ;
#140 = LINE ( 'NONE', #108, #89 ) ;
#141 = VECTOR ( 'NONE', #42, 1000.000000000000114 ) ;
#142 = CARTESIAN_POINT ( 'NONE',  ( 0.0000000000000000000, 9.212916512459889518, 0.0000000000000000000 ) ) ;
#143 = AXIS2_PLACEMENT_3D ( 'NONE', #81, #340, #196 ) ;
#144 = CC_DESIGN_DATE_AND_TIME_ASSIGNMENT ( #97, #190, ( #285 ) ) ;
#145 = APPROVAL_PERSON_ORGANIZATION ( #215, #101, #99 ) ;
#146 = CARTESIAN_POINT ( 'NONE',  ( -8.000000000000000000, 7.000000000000000000, -9.796850830579020038E-16 ) ) ;
#147 = DIRECTION ( 'NONE',  ( 0.0000000000000000000, 1.000000000000000000, 0.0000000000000000000 ) ) ;
#148 = ORIENTED_EDGE ( 'NONE', *, *, #124, .F. ) ;
#149 = CC_DESIGN_PERSON_AND_ORGANIZATION_ASSIGNMENT ( #327, #247, ( #285 ) ) ;
#150 = DIRECTION ( 'NONE',  ( 0.0000000000000000000, 0.0000000000000000000, 1.000000000000000000 ) ) ;
#151 = CIRCLE ( 'NONE', #344, 13.00000000000000000 ) ;
#152 =( GEOMETRIC_REPRESENTATION_CONTEXT ( 3 ) GLOBAL_UNCERTAINTY_ASSIGNED_CONTEXT ( ( #71 ) ) GLOBAL_UNIT_ASSIGNED_CONTEXT ( ( #296, #173, #87 ) ) REPRESENTATION_CONTEXT ( 'NONE', 'WORKASPACE' ) );
#153 = DATE_AND_TIME ( #33, #272 ) ;
#154 = DIRECTION ( 'NONE',  ( 1.000000000000000000, 0.0000000000000000000, 0.0000000000000000000 ) ) ;
#155 = ORIENTED_EDGE ( 'NONE', *, *, #9, .F. ) ;
#156 = DATE_TIME_ROLE ( 'creation_date' ) ;
#157 = AXIS2_PLACEMENT_3D ( 'NONE', #366, #55, #311 ) ;
#158 = TOROIDAL_SURFACE ( 'NONE', #167, 10.00000000000000000, 2.000000000000000000 ) ;
#159 = LINE ( 'NONE', #276, #141 ) ;
#160 = ORIENTED_EDGE ( 'NONE', *, *, #353, .T. ) ;
#161 = PERSON_AND_ORGANIZATION ( #102, #359 ) ;
#162 = EDGE_LOOP ( 'NONE', ( #91, #160 ) ) ;
#163 = CIRCLE ( 'NONE', #218, 13.00000000000000000 ) ;
#164 = ORIENTED_EDGE ( 'NONE', *, *, #267, .F. ) ;
#165 = ORIENTED_EDGE ( 'NONE', *, *, #131, .F. ) ;
#166 = CARTESIAN_POINT ( 'NONE',  ( 12.67500000000000071, 1.212916512459889962, 1.552188553469860059E-15 ) ) ;
#167 = AXIS2_PLACEMENT_3D ( 'NONE', #343, #348, #350 ) ;
#168 = DIRECTION ( 'NONE',  ( 1.000000000000000000, 0.0000000000000000000, 0.0000000000000000000 ) ) ;
#169 = CARTESIAN_POINT ( 'NONE',  ( 10.17500000000000071, 0.0000000000000000000, 0.0000000000000000000 ) ) ;
#170 = CC_DESIGN_DATE_AND_TIME_ASSIGNMENT ( #92, #156, ( #53 ) ) ;
#171 = CARTESIAN_POINT ( 'NONE',  ( 0.0000000000000000000, 2.425833024919769709, 0.0000000000000000000 ) ) ;
#172 = DIRECTION ( 'NONE',  ( 1.000000000000000000, 0.0000000000000000000, 0.0000000000000000000 ) ) ;
#173 =( NAMED_UNIT ( * ) PLANE_ANGLE_UNIT ( ) SI_UNIT ( $, .RADIAN. ) );
#174 = EDGE_LOOP ( 'NONE', ( #271, #132 ) ) ;
#175 = ADVANCED_FACE ( 'NONE', ( #23 ), #201, .F. ) ;
#176 = DIRECTION ( 'NONE',  ( 0.0000000000000000000, 1.000000000000000000, 0.0000000000000000000 ) ) ;
#177 = ORIENTED_EDGE ( 'NONE', *, *, #189, .T. ) ;
#178 = PERSON_AND_ORGANIZATION ( #102, #359 ) ;
#179 = CIRCLE ( 'NONE', #60, 2.000000000000000000 ) ;
#180 = CARTESIAN_POINT ( 'NONE',  ( -13.00000000000000000, 2.425833024919769709, -1.591988259969089844E-15 ) ) ;
#181 = VERTEX_POINT ( 'NONE', #139 ) ;
#182 = DIRECTION ( 'NONE',  ( 0.0000000000000000000, 0.0000000000000000000, 1.000000000000000000 ) ) ;
#183 = EDGE_CURVE ( 'NONE', #181, #120, #140, .T. ) ;
#184 = EDGE_LOOP ( 'NONE', ( #347, #223, #2, #360 ) ) ;
#185 = FACE_OUTER_BOUND ( 'NONE', #249, .T. ) ;
#186 = AXIS2_PLACEMENT_3D ( 'NONE', #171, #257, #370 ) ;
#187 = LOCAL_TIME ( 17, 2, 32.00000000000000000, #125 ) ;
#188 = PLANE ( 'NONE',  #329 ) ;
#189 = EDGE_CURVE ( 'NONE', #216, #361, #363, .T. ) ;
#190 = DATE_TIME_ROLE ( 'classification_date' ) ;
#191 = ORIENTED_EDGE ( 'NONE', *, *, #273, .F. ) ;
#192 = CARTESIAN_POINT ( 'NONE',  ( 0.0000000000000000000, 1.212916512459889962, 0.0000000000000000000 ) ) ;
#193 = VECTOR ( 'NONE', #231, 1000.000000000000114 ) ;
#194 = CALENDAR_DATE ( 2020, 3, 8 ) ;
#195 = ORIENTED_EDGE ( 'NONE', *, *, #183, .F. ) ;
#196 = DIRECTION ( 'NONE',  ( 1.000000000000000000, 0.0000000000000000000, 0.0000000000000000000 ) ) ;
#197 = LINE ( 'NONE', #166, #193 ) ;
#198 = PRODUCT_DEFINITION_FORMATION_WITH_SPECIFIED_SOURCE ( 'ANY', '', #111, .NOT_KNOWN. ) ;
#199 = DIRECTION ( 'NONE',  ( 0.0000000000000000000, 1.000000000000000000, 0.0000000000000000000 ) ) ;
#200 = ADVANCED_FACE ( 'NONE', ( #253 ), #106, .F. ) ;
#201 = CYLINDRICAL_SURFACE ( 'NONE', #157, 8.000000000000000000 ) ;
#202 = DIRECTION ( 'NONE',  ( 0.0000000000000000000, 1.000000000000000000, 0.0000000000000000000 ) ) ;
#203 = CLOSED_SHELL ( 'NONE', ( #175, #305, #118, #290, #105, #67, #36, #368, #200, #210 ) ) ;
#204 = DIRECTION ( 'NONE',  ( 0.0000000000000000000, 1.000000000000000000, 0.0000000000000000000 ) ) ;
#205 = EDGE_CURVE ( 'NONE', #361, #216, #307, .T. ) ;
#206 = VERTEX_POINT ( 'NONE', #54 ) ;
#207 = APPLICATION_CONTEXT ( 'configuration controlled 3d designs of mechanical parts and assemblies' ) ;
#208 = APPLICATION_PROTOCOL_DEFINITION ( 'international standard', 'config_control_design', 1994, #207 ) ;
#209 = CARTESIAN_POINT ( 'NONE',  ( -3.364279341222519766E-16, 16.00000000000000000, 10.00000000000000000 ) ) ;
#210 = ADVANCED_FACE ( 'NONE', ( #339, #342 ), #227, .T. ) ;
#211 = CARTESIAN_POINT ( 'NONE',  ( 0.0000000000000000000, 0.0000000000000000000, 0.0000000000000000000 ) ) ;
#212 = ORIENTED_EDGE ( 'NONE', *, *, #49, .T. ) ;
#213 = PERSON_AND_ORGANIZATION ( #102, #359 ) ;
#214 = CARTESIAN_POINT ( 'NONE',  ( 0.0000000000000000000, 0.0000000000000000000, 0.0000000000000000000 ) ) ;
#215 = PERSON_AND_ORGANIZATION ( #102, #359 ) ;
#216 = VERTEX_POINT ( 'NONE', #255 ) ;
#217 = EDGE_CURVE ( 'NONE', #181, #330, #352, .T. ) ;
#218 = AXIS2_PLACEMENT_3D ( 'NONE', #51, #199, #172 ) ;
#219 = APPROVAL_DATE_TIME ( #72, #101 ) ;
#220 = ORIENTED_EDGE ( 'NONE', *, *, #134, .F. ) ;
#221 = DATE_AND_TIME ( #127, #187 ) ;
#222 = DIRECTION ( 'NONE',  ( 1.224606353822379477E-16, 0.0000000000000000000, -1.000000000000000000 ) ) ;
#223 = ORIENTED_EDGE ( 'NONE', *, *, #353, .F. ) ;
#224 = VECTOR ( 'NONE', #78, 1000.000000000000000 ) ;
#225 = CC_DESIGN_PERSON_AND_ORGANIZATION_ASSIGNMENT ( #119, #236, ( #53 ) ) ;
#226 = CARTESIAN_POINT ( 'NONE',  ( -3.364279341222519766E-16, 14.00000000000000000, 10.00000000000000000 ) ) ;
#227 = PLANE ( 'NONE',  #136 ) ;
#228 = DIRECTION ( 'NONE',  ( 0.0000000000000000000, 1.000000000000000000, 0.0000000000000000000 ) ) ;
#229 = AXIS2_PLACEMENT_3D ( 'NONE', #235, #176, #1 ) ;
#230 = DIRECTION ( 'NONE',  ( 1.000000000000000000, 0.0000000000000000000, 0.0000000000000000000 ) ) ;
#231 = DIRECTION ( 'NONE',  ( 0.2588190451025210170, 0.9659258262890680902, 3.169514471227869555E-17 ) ) ;
#232 = DIRECTION ( 'NONE',  ( 1.000000000000000000, 0.0000000000000000000, 0.0000000000000000000 ) ) ;
#233 = VECTOR ( 'NONE', #362, 1000.000000000000000 ) ;
#234 = EDGE_LOOP ( 'NONE', ( #98, #354, #191, #128, #291 ) ) ;
#235 = CARTESIAN_POINT ( 'NONE',  ( 0.0000000000000000000, 16.00000000000000000, 0.0000000000000000000 ) ) ;
#236 = PERSON_AND_ORGANIZATION_ROLE ( 'creator' ) ;
#237 = VERTEX_POINT ( 'NONE', #112 ) ;
#238 = APPROVAL ( #292, 'UNSPECIFIED' ) ;
#239 = CARTESIAN_POINT ( 'NONE',  ( 0.0000000000000000000, 0.0000000000000000000, 0.0000000000000000000 ) ) ;
#240 = AXIS2_PLACEMENT_3D ( 'NONE', #275, #126, #335 ) ;
#241 = EDGE_LOOP ( 'NONE', ( #4, #45 ) ) ;
#242 = EDGE_CURVE ( 'NONE', #269, #181, #197, .T. ) ;
#243 = FACE_OUTER_BOUND ( 'NONE', #86, .T. ) ;
#244 = APPROVAL_ROLE ( '' ) ;
#245 = DIRECTION ( 'NONE',  ( -0.0000000000000000000, 1.000000000000000000, 0.0000000000000000000 ) ) ;
#246 = AXIS2_PLACEMENT_3D ( 'NONE', #214, #328, #66 ) ;
#247 = PERSON_AND_ORGANIZATION_ROLE ( 'classification_officer' ) ;
#248 = DIRECTION ( 'NONE',  ( 1.000000000000000000, 0.0000000000000000000, 0.0000000000000000000 ) ) ;
#249 = EDGE_LOOP ( 'NONE', ( #195, #321, #7, #165 ) ) ;
#250 = FACE_OUTER_BOUND ( 'NONE', #162, .T. ) ;
#251 = AXIS2_PLACEMENT_3D ( 'NONE', #192, #306, #93 ) ;
#252 = VECTOR ( 'NONE', #84, 1000.000000000000000 ) ;
#253 = FACE_OUTER_BOUND ( 'NONE', #298, .T. ) ;
#254 = DIRECTION ( 'NONE',  ( -1.000000000000000000, 0.0000000000000000000, -1.224606353822379970E-16 ) ) ;
#255 = CARTESIAN_POINT ( 'NONE',  ( 2.112784773522500124E-15, 16.00000000000000000, -10.00000000000000000 ) ) ;
#256 = CIRCLE ( 'NONE', #18, 8.000000000000000000 ) ;
#257 = DIRECTION ( 'NONE',  ( 0.0000000000000000000, 1.000000000000000000, 0.0000000000000000000 ) ) ;
#258 = COORDINATED_UNIVERSAL_TIME_OFFSET ( 6, 0, .BEHIND. ) ;
#259 = CC_DESIGN_PERSON_AND_ORGANIZATION_ASSIGNMENT ( #13, #69, ( #198 ) ) ;
#260 = FACE_OUTER_BOUND ( 'NONE', #64, .T. ) ;
#261 = ORIENTED_EDGE ( 'NONE', *, *, #242, .F. ) ;
#262 = CIRCLE ( 'NONE', #246, 12.34999999999999964 ) ;
#263 = CARTESIAN_POINT ( 'NONE',  ( -13.00000000000000000, 9.212916512459889518, -1.591988259969089844E-15 ) ) ;
#264 = AXIS2_PLACEMENT_3D ( 'NONE', #284, #138, #63 ) ;
#265 = ORIENTED_EDGE ( 'NONE', *, *, #113, .F. ) ;
#266 = CARTESIAN_POINT ( 'NONE',  ( 8.881784197001250351E-16, 14.00000000000000000, 0.0000000000000000000 ) ) ;
#267 = EDGE_CURVE ( 'NONE', #59, #206, #29, .T. ) ;
#268 = VERTEX_POINT ( 'NONE', #319 ) ;
#269 = VERTEX_POINT ( 'NONE', #289 ) ;
#270 = CIRCLE ( 'NONE', #240, 8.000000000000000000 ) ;
#271 = ORIENTED_EDGE ( 'NONE', *, *, #358, .T. ) ;
#272 = LOCAL_TIME ( 17, 2, 32.00000000000000000, #258 ) ;
#273 = EDGE_CURVE ( 'NONE', #59, #351, #30, .T. ) ;
#274 = COORDINATED_UNIVERSAL_TIME_OFFSET ( 6, 0, .BEHIND. ) ;
#275 = CARTESIAN_POINT ( 'NONE',  ( 0.0000000000000000000, 14.00000000000000000, 0.0000000000000000000 ) ) ;
#276 = CARTESIAN_POINT ( 'NONE',  ( -12.67500000000000071, 1.212916512459889962, -1.552188553469860059E-15 ) ) ;
#277 = CALENDAR_DATE ( 2020, 3, 8 ) ;
#278 = ORIENTED_EDGE ( 'NONE', *, *, #9, .T. ) ;
#279 = AXIS2_PLACEMENT_3D ( 'NONE', #226, #254, #80 ) ;
#280 = CIRCLE ( 'NONE', #308, 8.000000000000000000 ) ;
#281 = DIRECTION ( 'NONE',  ( 1.000000000000000000, 0.0000000000000000000, 0.0000000000000000000 ) ) ;
#282 = EDGE_CURVE ( 'NONE', #47, #268, #337, .T. ) ;
#283 = CARTESIAN_POINT ( 'NONE',  ( 8.000000000000000000, 0.0000000000000000000, 0.0000000000000000000 ) ) ;
#284 = CARTESIAN_POINT ( 'NONE',  ( 0.0000000000000000000, 1.212916512459889962, 0.0000000000000000000 ) ) ;
#285 = SECURITY_CLASSIFICATION ( '', '', #129 ) ;
#286 = CARTESIAN_POINT ( 'NONE',  ( -12.34999999999999964, 0.0000000000000000000, -1.512388846970639937E-15 ) ) ;
#287 = DIRECTION ( 'NONE',  ( 0.0000000000000000000, 0.0000000000000000000, -1.000000000000000000 ) ) ;
#288 = CARTESIAN_POINT ( 'NONE',  ( 0.0000000000000000000, 2.425833024919769709, 0.0000000000000000000 ) ) ;
#289 = CARTESIAN_POINT ( 'NONE',  ( 12.34999999999999964, 0.0000000000000000000, 0.0000000000000000000 ) ) ;
#290 = ADVANCED_FACE ( 'NONE', ( #338 ), #369, .T. ) ;
#291 = ORIENTED_EDGE ( 'NONE', *, *, #61, .T. ) ;
#292 = APPROVAL_STATUS ( 'not_yet_approved' ) ;
#293 = CIRCLE ( 'NONE', #279, 2.000000000000000000 ) ;
#294 = APPROVAL_ROLE ( '' ) ;
#295 = ORIENTED_EDGE ( 'NONE', *, *, #49, .F. ) ;
#296 =( LENGTH_UNIT ( ) NAMED_UNIT ( * ) SI_UNIT ( .MILLI., .METRE. ) );
#297 = PERSON_AND_ORGANIZATION ( #102, #359 ) ;
#298 = EDGE_LOOP ( 'NONE', ( #349, #326, #38, #94, #76 ) ) ;
#299 = COORDINATED_UNIVERSAL_TIME_OFFSET ( 6, 0, .BEHIND. ) ;
#300 = AXIS2_PLACEMENT_3D ( 'NONE', #313, #27, #317 ) ;
#301 = CARTESIAN_POINT ( 'NONE',  ( -13.00000000000000000, 16.00000000000000000, -1.591988259969089844E-15 ) ) ;
#302 = LOCAL_TIME ( 17, 2, 32.00000000000000000, #20 ) ;
#303 = CARTESIAN_POINT ( 'NONE',  ( 11.50000000000000000, 16.00000000000000000, 0.0000000000000000000 ) ) ;
#304 = FACE_BOUND ( 'NONE', #241, .T. ) ;
#305 = ADVANCED_FACE ( 'NONE', ( #325 ), #96, .T. ) ;
#306 = DIRECTION ( 'NONE',  ( 0.0000000000000000000, 1.000000000000000000, 0.0000000000000000000 ) ) ;
#307 = CIRCLE ( 'NONE', #300, 10.00000000000000000 ) ;
#308 = AXIS2_PLACEMENT_3D ( 'NONE', #31, #204, #232 ) ;
#309 = PERSON_AND_ORGANIZATION_ROLE ( 'design_supplier' ) ;
#310 = CYLINDRICAL_SURFACE ( 'NONE', #314, 13.00000000000000000 ) ;
#311 = DIRECTION ( 'NONE',  ( 1.000000000000000000, 0.0000000000000000000, 0.0000000000000000000 ) ) ;
#312 = EDGE_CURVE ( 'NONE', #32, #330, #103, .T. ) ;
#313 = CARTESIAN_POINT ( 'NONE',  ( 0.0000000000000000000, 16.00000000000000000, 0.0000000000000000000 ) ) ;
#314 = AXIS2_PLACEMENT_3D ( 'NONE', #70, #22, #130 ) ;
#315 = AXIS2_PLACEMENT_3D ( 'NONE', #266, #371, #150 ) ;
#316 = DIRECTION ( 'NONE',  ( 0.0000000000000000000, -1.000000000000000000, 0.0000000000000000000 ) ) ;
#317 = DIRECTION ( 'NONE',  ( 1.000000000000000000, 0.0000000000000000000, 0.0000000000000000000 ) ) ;
#318 = EDGE_CURVE ( 'NONE', #268, #237, #11, .T. ) ;
#319 = CARTESIAN_POINT ( 'NONE',  ( 8.000000000000000000, 14.00000000000000000, 0.0000000000000000000 ) ) ;
#320 = AXIS2_PLACEMENT_3D ( 'NONE', #239, #90, #35 ) ;
#321 = ORIENTED_EDGE ( 'NONE', *, *, #217, .T. ) ;
#322 = DIRECTION ( 'NONE',  ( 1.000000000000000000, 0.0000000000000000000, 0.0000000000000000000 ) ) ;
#323 = AXIS2_PLACEMENT_3D ( 'NONE', #142, #77, #367 ) ;
#324 = ORIENTED_EDGE ( 'NONE', *, *, #61, .F. ) ;
#325 = FACE_OUTER_BOUND ( 'NONE', #12, .T. ) ;
#326 = ORIENTED_EDGE ( 'NONE', *, *, #318, .T. ) ;
#327 = PERSON_AND_ORGANIZATION ( #102, #359 ) ;
#328 = DIRECTION ( 'NONE',  ( 0.0000000000000000000, 1.000000000000000000, 0.0000000000000000000 ) ) ;
#329 = AXIS2_PLACEMENT_3D ( 'NONE', #303, #245, #281 ) ;
#330 = VERTEX_POINT ( 'NONE', #180 ) ;
#331 = CARTESIAN_POINT ( 'NONE',  ( -8.000000000000000000, 14.00000000000000000, -9.796850830579020038E-16 ) ) ;
#332 = CC_DESIGN_PERSON_AND_ORGANIZATION_ASSIGNMENT ( #297, #114, ( #111 ) ) ;
#333 = APPROVAL_STATUS ( 'not_yet_approved' ) ;
#334 = DIRECTION ( 'NONE',  ( 0.0000000000000000000, 1.000000000000000000, 0.0000000000000000000 ) ) ;
#335 = DIRECTION ( 'NONE',  ( 1.000000000000000000, 0.0000000000000000000, 0.0000000000000000000 ) ) ;
#336 = CC_DESIGN_SECURITY_CLASSIFICATION ( #285, ( #198 ) ) ;
#337 = LINE ( 'NONE', #26, #224 ) ;
#338 = FACE_OUTER_BOUND ( 'NONE', #100, .T. ) ;
#339 = FACE_OUTER_BOUND ( 'NONE', #62, .T. ) ;
#340 = DIRECTION ( 'NONE',  ( 0.0000000000000000000, 1.000000000000000000, 0.0000000000000000000 ) ) ;
#341 = CC_DESIGN_PERSON_AND_ORGANIZATION_ASSIGNMENT ( #213, #309, ( #198 ) ) ;
#342 = FACE_BOUND ( 'NONE', #174, .T. ) ;
#343 = CARTESIAN_POINT ( 'NONE',  ( 8.881784197001250351E-16, 14.00000000000000000, 0.0000000000000000000 ) ) ;
#344 = AXIS2_PLACEMENT_3D ( 'NONE', #288, #104, #230 ) ;
#345 = CIRCLE ( 'NONE', #320, 8.000000000000000000 ) ;
#346 = EDGE_CURVE ( 'NONE', #351, #47, #345, .T. ) ;
#347 = ORIENTED_EDGE ( 'NONE', *, *, #183, .T. ) ;
#348 = DIRECTION ( 'NONE',  ( 0.0000000000000000000, 1.000000000000000000, 0.0000000000000000000 ) ) ;
#349 = ORIENTED_EDGE ( 'NONE', *, *, #282, .T. ) ;
#350 = DIRECTION ( 'NONE',  ( 0.0000000000000000000, 0.0000000000000000000, 1.000000000000000000 ) ) ;
#351 = VERTEX_POINT ( 'NONE', #117 ) ;
#352 = CIRCLE ( 'NONE', #186, 13.00000000000000000 ) ;
#353 = EDGE_CURVE ( 'NONE', #32, #120, #116, .T. ) ;
#354 = ORIENTED_EDGE ( 'NONE', *, *, #346, .F. ) ;
#355 = ORIENTED_EDGE ( 'NONE', *, *, #134, .T. ) ;
#356 = CONICAL_SURFACE ( 'NONE', #251, 12.67500000000000071, 0.2617993877991492968 ) ;
#357 = DIRECTION ( 'NONE',  ( 1.000000000000000000, 0.0000000000000000000, 0.0000000000000000000 ) ) ;
#358 = EDGE_CURVE ( 'NONE', #47, #351, #280, .T. ) ;
#359 = ORGANIZATION ( 'UNSPECIFIED', 'UNSPECIFIED', '' ) ;
#360 = ORIENTED_EDGE ( 'NONE', *, *, #124, .T. ) ;
#361 = VERTEX_POINT ( 'NONE', #209 ) ;
#362 = DIRECTION ( 'NONE',  ( 0.0000000000000000000, -1.000000000000000000, 0.0000000000000000000 ) ) ;
#363 = CIRCLE ( 'NONE', #95, 10.00000000000000000 ) ;
#364 = AXIS2_PLACEMENT_3D ( 'NONE', #211, #182, #154 ) ;
#365 = CYLINDRICAL_SURFACE ( 'NONE', #323, 13.00000000000000000 ) ;
#366 = CARTESIAN_POINT ( 'NONE',  ( 0.0000000000000000000, 7.000000000000000000, 0.0000000000000000000 ) ) ;
#367 = DIRECTION ( 'NONE',  ( 1.000000000000000000, 0.0000000000000000000, 0.0000000000000000000 ) ) ;
#368 = ADVANCED_FACE ( 'NONE', ( #260 ), #158, .T. ) ;
#369 = CONICAL_SURFACE ( 'NONE', #264, 12.67500000000000071, 0.2617993877991492968 ) ;
#370 = DIRECTION ( 'NONE',  ( 1.000000000000000000, 0.0000000000000000000, 0.0000000000000000000 ) ) ;
#371 = DIRECTION ( 'NONE',  ( 0.0000000000000000000, 1.000000000000000000, 0.0000000000000000000 ) ) ;
ENDSEC;
END-ISO-10303-21;
