  0
SECTION
  2
HEADER
  9
$ACADVER
  1
AC1009
  9
$DWGCODEPAGE
  3
ansi_1252
  9
$INSBASE
 10
0.0
 20
0.0
 30
0.0
  9
$EXTMIN
 10
-44.00747230215678
 20
-32.00399999999999
 30
0.0
  9
$EXTMAX
 10
86.50126037872194
 20
41.49949365549686
 30
0.0
  9
$LIMMIN
 10
0.0
 20
0.0
  9
$LIMMAX
 10
5.5
 20
4.25
  9
$ORTHOMODE
 70
     0
  9
$REGENMODE
 70
     1
  9
$FILLMODE
 70
     1
  9
$QTEXTMODE
 70
     0
  9
$MIRRTEXT
 70
     1
  9
$DRAGMODE
 70
     2
  9
$LTSCALE
 40
12.0
  9
$OSMODE
 70
   511
  9
$ATTMODE
 70
     1
  9
$TEXTSIZE
 40
3.2
  9
$TRACEWID
 40
0.05
  9
$TEXTSTYLE
  7
STANDARD
  9
$CLAYER
  8
DIM
  9
$CELTYPE
  6
BYLAYER
  9
$CECOLOR
 62
   256
  9
$DIMSCALE
 40
25.0
  9
$DIMASZ
 40
0.125
  9
$DIMEXO
 40
0.0625
  9
$DIMDLI
 40
0.38
  9
$DIMRND
 40
0.0
  9
$DIMDLE
 40
0.0
  9
$DIMEXE
 40
0.0625
  9
$DIMTP
 40
0.0
  9
$DIMTM
 40
0.0
  9
$DIMTXT
 40
0.125
  9
$DIMCEN
 40
0.09
  9
$DIMTSZ
 40
0.0
  9
$DIMTOL
 70
     0
  9
$DIMLIM
 70
     0
  9
$DIMTIH
 70
     0
  9
$DIMTOH
 70
     1
  9
$DIMSE1
 70
     0
  9
$DIMSE2
 70
     0
  9
$DIMTAD
 70
     1
  9
$DIMZIN
 70
     0
  9
$DIMBLK
  1

  9
$DIMASO
 70
     1
  9
$DIMSHO
 70
     0
  9
$DIMPOST
  1

  9
$DIMAPOST
  1

  9
$DIMALT
 70
     0
  9
$DIMALTD
 70
     2
  9
$DIMALTF
 40
25.4
  9
$DIMLFAC
 40
1.0
  9
$DIMTOFL
 70
     0
  9
$DIMTVP
 40
0.0
  9
$DIMTIX
 70
     0
  9
$DIMSOXD
 70
     0
  9
$DIMSAH
 70
     0
  9
$DIMBLK1
  1

  9
$DIMBLK2
  1

  9
$DIMSTYLE
  2
STANDARD
  9
$DIMCLRD
 70
     0
  9
$DIMCLRE
 70
     0
  9
$DIMCLRT
 70
     0
  9
$DIMTFAC
 40
1.0
  9
$DIMGAP
 40
0.09
  9
$LUNITS
 70
     2
  9
$LUPREC
 70
     4
  9
$SKETCHINC
 40
0.1
  9
$FILLETRAD
 40
0.0
  9
$AUNITS
 70
     0
  9
$AUPREC
 70
     0
  9
$MENU
  1
acad
  9
$ELEVATION
 40
0.0
  9
$PELEVATION
 40
0.0
  9
$THICKNESS
 40
0.0
  9
$LIMCHECK
 70
     0
  9
$CHAMFERA
 40
2.0
  9
$CHAMFERB
 40
2.0
  9
$SKPOLY
 70
     0
  9
$TDCREATE
 40
2456568.665048877
  9
$TDUPDATE
 40
2456568.670190231
  9
$TDINDWG
 40
0.0051406944
  9
$TDUSRTIMER
 40
2456568.873383067
  9
$USRTIMER
 70
     1
  9
$ANGBASE
 50
0.0
  9
$ANGDIR
 70
     0
  9
$PDMODE
 70
     0
  9
$PDSIZE
 40
0.0
  9
$PLINEWID
 40
0.0
  9
$COORDS
 70
     1
  9
$SPLFRAME
 70
     0
  9
$SPLINETYPE
 70
     6
  9
$SPLINESEGS
 70
     8
  9
$ATTDIA
 70
     0
  9
$ATTREQ
 70
     1
  9
$HANDLING
 70
     1
  9
$HANDSEED
  5
8C4
  9
$SURFTAB1
 70
     6
  9
$SURFTAB2
 70
     6
  9
$SURFTYPE
 70
     6
  9
$SURFU
 70
     6
  9
$SURFV
 70
     6
  9
$UCSNAME
  2

  9
$UCSORG
 10
0.0
 20
0.0
 30
0.0
  9
$UCSXDIR
 10
1.0
 20
0.0
 30
0.0
  9
$UCSYDIR
 10
0.0
 20
1.0
 30
0.0
  9
$PUCSNAME
  2

  9
$PUCSORG
 10
0.0
 20
0.0
 30
0.0
  9
$PUCSXDIR
 10
1.0
 20
0.0
 30
0.0
  9
$PUCSYDIR
 10
0.0
 20
1.0
 30
0.0
  9
$USERI1
 70
     0
  9
$USERI2
 70
     0
  9
$USERI3
 70
     0
  9
$USERI4
 70
     0
  9
$USERI5
 70
     0
  9
$USERR1
 40
0.0
  9
$USERR2
 40
0.0
  9
$USERR3
 40
0.0
  9
$USERR4
 40
0.0
  9
$USERR5
 40
0.0
  9
$WORLDVIEW
 70
     1
  9
$SHADEDGE
 70
     3
  9
$SHADEDIF
 70
    70
  9
$TILEMODE
 70
     1
  9
$MAXACTVP
 70
    64
  9
$PLIMCHECK
 70
     0
  9
$PEXTMIN
 10
1.000000000000000E+20
 20
1.000000000000000E+20
 30
1.000000000000000E+20
  9
$PEXTMAX
 10
-1.000000000000000E+20
 20
-1.000000000000000E+20
 30
-1.000000000000000E+20
  9
$PLIMMIN
 10
0.0
 20
0.0
  9
$PLIMMAX
 10
0.0
 20
0.0
  9
$UNITMODE
 70
     0
  9
$VISRETAIN
 70
     1
  9
$PLINEGEN
 70
     0
  9
$PSLTSCALE
 70
     0
  0
ENDSEC
  0
SECTION
  2
TABLES
  0
TABLE
  2
VPORT
 70
     2
  0
VPORT
  2
*ACTIVE
 70
     0
 10
0.0
 20
0.0
 11
1.0
 21
1.0
 12
21.24689403828258
 22
4.747746827748429
 13
0.0
 23
0.0
 14
1.0
 24
1.0
 15
0.0
 25
0.0
 16
0.0
 26
0.0
 36
1.0
 17
0.0
 27
0.0
 37
0.0
 40
104.3804059547476
 41
1.275324675324675
 42
50.0
 43
0.0
 44
0.0
 50
0.0
 51
0.0
 71
    16
 72
  1000
 73
     1
 74
     1
 75
     0
 76
     0
 77
     0
 78
     0
  0
ENDTAB
  0
TABLE
  2
LTYPE
 70
     5
  0
LTYPE
  2
CONTINUOUS
 70
     0
  3
Solid line
 72
    65
 73
     0
 40
0.0
  0
LTYPE
  2
HIDDEN
 70
     0
  3
_ _ _ _ _ _ _ _ _ _ _ _ _ _ _ _ _ _ _ _ _ _ _
 72
    65
 73
     2
 40
0.375
 49
0.25
 49
-0.125
  0
LTYPE
  2
CENTER
 70
     0
  3
____ _ ____ _ ____ _ ____ _ ____ _ ____ _ ____
 72
    65
 73
     4
 40
2.0
 49
1.25
 49
-0.25
 49
0.25
 49
-0.25
  0
ENDTAB
  0
TABLE
  2
LAYER
 70
    10
  0
LAYER
  2
0
 70
     0
 62
     7
  6
CONTINUOUS
  0
LAYER
  2
LINE
 70
     0
 62
     3
  6
CONTINUOUS
  0
LAYER
  2
HIDDEN
 70
     0
 62
     2
  6
HIDDEN
  0
LAYER
  2
HATCH
 70
     0
 62
     6
  6
CONTINUOUS
  0
LAYER
  2
CTRL
 70
     0
 62
     1
  6
CENTER
  0
LAYER
  2
DIM
 70
     0
 62
     7
  6
CONTINUOUS
  0
LAYER
  2
BORDER
 70
     0
 62
     3
  6
CONTINUOUS
  0
LAYER
  2
DEFPOINTS
 70
     0
 62
    -7
  6
CONTINUOUS
  0
ENDTAB
  0
TABLE
  2
STYLE
 70
     2
  0
STYLE
  2
STANDARD
 70
     0
 40
0.0
 41
1.0
 50
0.0
 71
     0
 42
3.2
  3
txt
  4

  0
ENDTAB
  0
TABLE
  2
VIEW
 70
     0
  0
ENDTAB
  0
TABLE
  2
UCS
 70
     0
  0
ENDTAB
  0
TABLE
  2
APPID
 70
     1
  0
APPID
  2
ACAD
 70
     0
  0
ENDTAB
  0
TABLE
  2
DIMSTYLE
 70
     1
  0
DIMSTYLE
  2
STANDARD
 70
     0
  3

  4

  5

  6

  7

 40
1.0
 41
0.18
 42
0.0625
 43
0.38
 44
0.18
 45
0.0
 46
0.0
 47
0.0
 48
0.0
140
0.18
141
0.09
142
0.0
143
25.4
144
1.0
145
0.0
146
1.0
147
0.09
 71
     0
 72
     0
 73
     1
 74
     1
 75
     0
 76
     0
 77
     0
 78
     0
170
     0
171
     2
172
     0
173
     0
174
     0
175
     0
176
     0
177
     0
178
     0
  0
ENDTAB
  0
ENDSEC
  0
SECTION
  2
BLOCKS
  0
BLOCK
  8
0
  2
$MODEL_SPACE
 70
     0
 10
0.0
 20
0.0
 30
0.0
  3
$MODEL_SPACE
  1

  0
ENDBLK
  5
6BE
  8
0
  0
BLOCK
 67
     1
  8
0
  2
$PAPER_SPACE
 70
     0
 10
0.0
 20
0.0
 30
0.0
  3
$PAPER_SPACE
  1

  0
ENDBLK
  5
6BC
 67
     1
  8
0
  0
ENDSEC
  0
SECTION
  2
ENTITIES
  0
LINE
  5
58A
  8
HIDDEN
 10
63.99999999999996
 20
21.81249999999974
 30
0.0
 11
63.99999999999999
 21
-0.0000000000000284
 31
0.0
  0
LINE
  5
58B
  8
HIDDEN
 10
61.99999999999996
 20
23.81249999999974
 30
0.0
 11
55.77831998999902
 21
23.81249999999974
 31
0.0
  0
LINE
  5
58D
  8
HATCH
 10
45.69999999999997
 20
22.69499999999996
 30
0.0
 11
45.69999999999997
 21
23.81249999999974
 31
0.0
  0
LINE
  5
58E
  8
HIDDEN
 10
13.19999999999997
 20
14.28749999999985
 30
0.0
 11
20.16538463493832
 21
14.28749999999985
 31
0.0
  0
LINE
  5
58F
  8
HIDDEN
 10
63.99999999999996
 20
-17.35271490524869
 30
0.0
 11
41.20873113389906
 21
-15.75899413329486
 31
0.0
  0
LINE
  5
590
  8
HIDDEN
 10
20.16538463493832
 20
-14.28749999999991
 30
0.0
 11
20.16538463493832
 21
14.28749999999985
 31
0.0
  0
LINE
  5
591
  8
LINE
 10
45.69999999999997
 20
23.81249999999974
 30
0.0
 11
45.69999999999997
 21
-23.8124999999998
 31
0.0
  0
LINE
  5
593
  8
HIDDEN
 10
61.99999999999996
 20
-23.8124999999998
 30
0.0
 11
55.77831998999899
 21
-23.8124999999998
 31
0.0
  0
LINE
  5
594
  8
HIDDEN
 10
63.99999999999996
 20
-21.8124999999998
 30
0.0
 11
63.99999999999999
 21
-0.0000000000000284
 31
0.0
  0
POINT
  5
595
  8
HIDDEN
  6
BYBLOCK
 62
     0
 10
20.16538463493832
 20
14.28749999999985
 30
0.0
  0
POINT
  5
596
  8
DEFPOINTS
  6
BYBLOCK
 62
     0
 10
20.16538463493866
 20
-14.28749999999991
 30
0.0
  0
POINT
  5
597
  8
DEFPOINTS
  6
BYBLOCK
 62
     0
 10
61.99999999999996
 20
23.81249999999974
 30
0.0
  0
POINT
  5
598
  8
DEFPOINTS
  6
BYBLOCK
 62
     0
 10
61.99999999999996
 20
-23.81249999999977
 30
0.0
  0
LINE
  5
599
  8
HIDDEN
 10
13.19999999999997
 20
14.28749999999985
 30
0.0
 11
11.30196099003915
 21
10.99999999999997
 31
0.0
  0
LINE
  5
59A
  8
HIDDEN
 10
13.19999999999997
 20
-14.28749999999988
 30
0.0
 11
13.19999999999997
 21
14.28749999999988
 31
0.0
  0
LINE
  5
59B
  8
HIDDEN
 10
13.19999999999997
 20
-14.28749999999988
 30
0.0
 11
20.16538463493832
 21
-14.28749999999988
 31
0.0
  0
LINE
  5
59C
  8
CTRL
 10
86.50126037872194
 20
-0.0000000000000284
 30
0.0
 11
-44.00747230215678
 21
-0.0000000000000284
 31
0.0
  0
POINT
  5
59D
  8
DEFPOINTS
  6
BYBLOCK
 62
     0
 10
63.99999999999996
 20
21.81249999999974
 30
0.0
  0
LINE
  5
59E
  8
LINE
 10
45.7
 20
23.81249999999974
 30
0.0
 11
16.00000000000004
 21
23.8124999999998
 31
0.0
  0
LINE
  5
59F
  8
HIDDEN
 10
63.99999999999996
 20
17.35271490524863
 30
0.0
 11
20.16538463493832
 21
14.28749999999985
 31
0.0
  0
ARC
  5
5A0
  8
DIM
 10
39.20126740539949
 20
-17.42000620121229
 30
0.0
 40
0.7381875000000001
 50
180.0
 51
194.3662353416898
  0
ARC
  5
5A1
  8
DIM
 10
39.45963303039944
 20
-17.38507400556313
 30
0.0
 40
0.4429125
 50
180.0
 51
209.4985180895021
  0
ARC
  5
5A2
  8
DIM
 10
38.13089553039963
 20
-16.43129192887122
 30
0.0
 40
0.332184375
 50
0.0
 51
90.0
  0
ARC
  5
5A3
  8
DIM
 10
38.55535334289947
 20
-16.32979114762119
 30
0.0
 40
0.4613671875000001
 50
0.0
 51
90.0
  0
ARC
  5
5A4
  8
DIM
 10
38.55535334289947
 20
-15.40705677262122
 30
0.0
 40
0.4613671875000001
 50
270.0
 51
0.0
  0
LINE
  5
5A5
  8
DIM
 10
38.48616336292791
 20
-17.60316458512128
 30
0.0
 11
39.07413597234948
 21
-17.60316458512128
 31
0.0
  0
LINE
  5
5A6
  8
DIM
 10
38.46307990539954
 20
-16.43129192887122
 30
0.0
 11
38.46307990539954
 21
-17.42000620121229
 31
0.0
  0
LINE
  5
5A7
  8
DIM
 10
39.01672053039944
 20
-14.7094695851211
 30
0.0
 11
39.01672053039944
 21
-15.40705677262122
 31
0.0
  0
ARC
  5
5A8
  8
DIM
 10
38.24162365539955
 20
-15.41628411637123
 30
0.0
 40
0.22145625
 50
270.0
 51
0.0
  0
ARC
  5
5A9
  8
DIM
 10
38.24162365539955
 20
-14.81650677262127
 30
0.0
 40
0.22145625
 50
0.0
 51
90.0
  0
LINE
  5
5AA
  8
DIM
 10
38.46307990539954
 20
-15.41628411637123
 30
0.0
 11
38.46307990539954
 21
-14.81650677262127
 31
0.0
  0
LINE
  5
5AB
  8
DIM
 10
37.87252990539945
 20
-15.63774036637122
 30
0.0
 11
37.87252990539945
 21
-14.59505052262125
 31
0.0
  0
LINE
  5
5AC
  8
DIM
 10
37.31888928039955
 20
-17.60316458512128
 30
0.0
 11
37.87252990539945
 21
-17.60316458512128
 31
0.0
  0
LINE
  5
5AD
  8
DIM
 10
38.13089553039963
 20
-16.09910755387119
 30
0.0
 11
37.87252990539967
 21
-16.09910755387119
 31
0.0
  0
LINE
  5
5AE
  8
DIM
 10
38.24162365539955
 20
-15.63774036637122
 30
0.0
 11
37.87252990539967
 21
-15.63774036637122
 31
0.0
  0
LINE
  5
5AF
  8
DIM
 10
37.87252990539945
 20
-17.60316458512128
 30
0.0
 11
37.87252990539945
 21
-16.09910755387119
 31
0.0
  0
LINE
  5
5B0
  8
DIM
 10
37.87252990539945
 20
-14.59505052262125
 30
0.0
 11
38.24162365539955
 21
-14.59505052262125
 31
0.0
  0
ARC
  5
5B1
  8
DIM
 10
38.44093428039962
 20
-14.7094695851211
 30
0.0
 40
0.57578625
 50
0.0
 51
90.0
  0
LINE
  5
5B2
  8
DIM
 10
39.01672053039944
 20
-17.38507400556313
 30
0.0
 11
39.01672053039944
 21
-16.32979114762119
 31
0.0
  0
LINE
  5
5B3
  8
DIM
 10
37.31888928039955
 20
-14.13368333512125
 30
0.0
 11
38.44093428039962
 21
-14.13368333512125
 31
0.0
  0
LINE
  5
5B4
  8
DIM
 10
37.31888928039955
 20
-17.60316458512128
 30
0.0
 11
37.31888928039955
 21
-14.13368333512125
 31
0.0
  0
LINE
  5
5B5
  8
DIM
 10
36.21160803039955
 20
-15.63774036637122
 30
0.0
 11
36.21160803039955
 21
-14.59505052262125
 31
0.0
  0
LINE
  5
5B6
  8
DIM
 10
36.98670490539966
 20
-16.09910755387119
 30
0.0
 11
36.98670490539966
 21
-15.63774036637122
 31
0.0
  0
LINE
  5
5B7
  8
DIM
 10
36.98670490539966
 20
-16.09910755387119
 30
0.0
 11
36.21160803039955
 21
-16.09910755387119
 31
0.0
  0
LINE
  5
5B8
  8
DIM
 10
36.98670490539966
 20
-15.63774036637122
 30
0.0
 11
36.21160803039955
 21
-15.63774036637122
 31
0.0
  0
LINE
  5
5B9
  8
DIM
 10
36.98670490539966
 20
-14.59505052262125
 30
0.0
 11
36.98670490539966
 21
-14.13368333512125
 31
0.0
  0
LINE
  5
5BA
  8
DIM
 10
36.21160803039955
 20
-14.59505052262125
 30
0.0
 11
36.98670490539966
 21
-14.59505052262125
 31
0.0
  0
LINE
  5
5BB
  8
DIM
 10
36.21160803039955
 20
-17.14179739762127
 30
0.0
 11
36.98670490539966
 21
-17.14179739762127
 31
0.0
  0
LINE
  5
5BC
  8
DIM
 10
36.21160803039955
 20
-17.14179739762127
 30
0.0
 11
36.21160803039955
 21
-16.09910755387119
 31
0.0
  0
LINE
  5
5BD
  8
DIM
 10
35.65796740539965
 20
-14.13368333512125
 30
0.0
 11
36.98670490539966
 21
-14.13368333512125
 31
0.0
  0
LINE
  5
5BE
  8
DIM
 10
35.65796740539965
 20
-17.60316458512128
 30
0.0
 11
35.65796740539965
 21
-14.13368333512125
 31
0.0
  0
LINE
  5
5BF
  8
DIM
 10
36.98670490539966
 20
-17.60316458512128
 30
0.0
 11
36.98670490539966
 21
-17.14179739762127
 31
0.0
  0
LINE
  5
5C0
  8
DIM
 10
35.65796740539965
 20
-17.60316458512128
 30
0.0
 11
36.98670490539966
 21
-17.60316458512128
 31
0.0
  0
ARC
  5
5C1
  8
DIM
 10
34.40651737166674
 20
-14.70946958512121
 30
0.0
 40
0.57578625
 50
90.0
 51
205.0000000000006
  0
LINE
  5
5C2
  8
DIM
 10
33.81249865539969
 20
-17.14179739762127
 30
0.0
 11
33.81249865539969
 21
-17.60316458512128
 31
0.0
  0
ARC
  5
5C3
  8
DIM
 10
34.57768347156933
 20
-14.77959739762127
 30
0.0
 40
0.184546875
 50
90.0
 51
205.0000000000034
  0
LINE
  5
5C4
  8
DIM
 10
35.21505490539964
 20
-14.13368333512125
 30
0.0
 11
34.40651737166674
 21
-14.13368333512125
 31
0.0
  0
LINE
  5
5C5
  8
DIM
 10
35.21505490539964
 20
-14.59505052262125
 30
0.0
 11
34.57768347156933
 21
-14.59505052262125
 31
0.0
  0
LINE
  5
5C6
  8
DIM
 10
35.21505490539964
 20
-14.13368333512125
 30
0.0
 11
35.21505490539964
 21
-14.59505052262125
 31
0.0
  0
ARC
  5
5C7
  8
DIM
 10
34.61574005549706
 20
-16.95725052262114
 30
0.0
 40
0.184546875
 50
270.0
 51
25.00000000000333
  0
LINE
  5
5C8
  8
DIM
 10
34.7829963253828
 20
-16.87925764309907
 30
0.0
 11
33.88467780962291
 21
-14.95280736923033
 31
0.0
  0
LINE
  5
5C9
  8
DIM
 10
35.30874571744327
 20
-16.78404055101197
 30
0.0
 11
34.41042720168339
 21
-14.85759027714346
 31
0.0
  0
ARC
  5
5CA
  8
DIM
 10
34.78690615539965
 20
-17.02737833512123
 30
0.0
 40
0.57578625
 50
270.0
 51
24.999999999997
  0
LINE
  5
5CB
  8
DIM
 10
33.81249865539969
 20
-17.14179739762127
 30
0.0
 11
34.61574005549706
 21
-17.14179739762127
 31
0.0
  0
LINE
  5
5CC
  8
DIM
 10
33.81249865539969
 20
-17.60316458512128
 30
0.0
 11
34.78690615539965
 21
-17.60316458512128
 31
0.0
  0
LINE
  5
5CD
  8
DIM
 10
33.44340490539939
 20
-14.13368333512125
 30
0.0
 11
33.44340490539939
 21
-17.60316458512128
 31
0.0
  0
LINE
  5
5CE
  8
DIM
 10
32.92667365539948
 20
-14.13368333512125
 30
0.0
 11
33.44340490539939
 21
-14.13368333512125
 31
0.0
  0
LINE
  5
5CF
  8
DIM
 10
32.92667365539948
 20
-17.60316458512128
 30
0.0
 11
32.92667365539948
 21
-14.13368333512125
 31
0.0
  0
LINE
  5
5D0
  8
DIM
 10
32.92667365539948
 20
-17.60316458512128
 30
0.0
 11
33.44340490539939
 21
-17.60316458512128
 31
0.0
  0
LINE
  5
5D1
  8
DIM
 10
30.95743654256181
 20
-17.14179739762127
 30
0.0
 11
31.36317940493932
 21
-15.05443132552639
 31
0.0
  0
LINE
  5
5D2
  8
DIM
 10
30.95743654256181
 20
-17.14179739762127
 30
0.0
 11
31.602867924314
 21
-17.14179739762127
 31
0.0
  0
LINE
  5
5D3
  8
DIM
 10
31.72649088961874
 20
-17.60316458512128
 30
0.0
 11
31.602867924314
 21
-17.14179739762127
 31
0.0
  0
LINE
  5
5D4
  8
DIM
 10
30.39775338961873
 20
-17.60316458512128
 30
0.0
 11
31.72649088961874
 21
-17.60316458512128
 31
0.0
  0
LINE
  5
5D5
  8
DIM
 10
32.16877513168474
 20
-17.60316458512128
 30
0.0
 11
31.36317940493932
 21
-15.05443132552639
 31
0.0
  0
LINE
  5
5D6
  8
DIM
 10
32.72241575668464
 20
-17.60316458512128
 30
0.0
 11
32.16877513168474
 21
-17.60316458512128
 31
0.0
  0
LINE
  5
5D7
  8
DIM
 10
31.79277105759233
 20
-14.13368333512125
 30
0.0
 11
32.72241575668464
 21
-17.60316458512128
 31
0.0
  0
LINE
  5
5D8
  8
DIM
 10
31.07215222754142
 20
-14.13368333512125
 30
0.0
 11
31.79277105759233
 21
-14.13368333512125
 31
0.0
  0
LINE
  5
5D9
  8
DIM
 10
30.39775338961873
 20
-17.60316458512128
 30
0.0
 11
31.07215222754142
 21
-14.13368333512125
 31
0.0
  0
LINE
  5
5DA
  8
DIM
 10
29.48634538525117
 20
-15.73375291191778
 30
0.0
 11
30.23247008249213
 21
-14.13368333512125
 31
0.0
  0
LINE
  5
5DB
  8
DIM
 10
28.84772124180272
 20
-17.60316458512128
 30
0.0
 11
28.84772124180272
 21
-17.1032868071473
 31
0.0
  0
LINE
  5
5DC
  8
DIM
 10
28.22026186680266
 20
-17.60316458512128
 30
0.0
 11
28.84772124180272
 21
-17.60316458512128
 31
0.0
  0
LINE
  5
5DD
  8
DIM
 10
29.6050107074923
 20
-17.60316458512128
 30
0.0
 11
29.14826029541656
 21
-16.45877872678929
 31
0.0
  0
LINE
  5
5DE
  8
DIM
 10
29.6050107074923
 20
-17.60316458512128
 30
0.0
 11
30.23247008249213
 21
-17.60316458512128
 31
0.0
  0
LINE
  5
5DF
  8
DIM
 10
30.23247008249213
 20
-17.60316458512128
 30
0.0
 11
29.48634538525117
 21
-15.73375291191778
 31
0.0
  0
LINE
  5
5E0
  8
DIM
 10
28.84772124180272
 20
-17.1032868071473
 30
0.0
 11
29.14826029541656
 21
-16.45877872678929
 31
0.0
  0
LINE
  5
5E1
  8
DIM
 10
29.6050107074923
 20
-14.13368333512125
 30
0.0
 11
30.23247008249213
 21
-14.13368333512125
 31
0.0
  0
LINE
  5
5E2
  8
DIM
 10
28.84772124180272
 20
-15.75769583512121
 30
0.0
 11
29.6050107074923
 21
-14.13368333512125
 31
0.0
  0
LINE
  5
5E3
  8
DIM
 10
28.84772124180272
 20
-14.13368333512125
 30
0.0
 11
28.84772124180272
 21
-15.75769583512121
 31
0.0
  0
LINE
  5
5E4
  8
DIM
 10
28.22026186680266
 20
-14.13368333512125
 30
0.0
 11
28.84772124180272
 21
-14.13368333512125
 31
0.0
  0
LINE
  5
5E5
  8
DIM
 10
28.22026186680266
 20
-14.13368333512125
 30
0.0
 11
28.22026186680266
 21
-17.60316458512128
 31
0.0
  0
ARC
  5
5E6
  8
DIM
 10
25.3782399918026
 20
-15.72078646012113
 30
0.0
 40
0.0922734375
 50
270.0
 51
0.0
  0
LINE
  5
5E7
  8
DIM
 10
26.5039759293026
 20
-17.14179739762127
 30
0.0
 11
26.87306967930267
 21
-17.14179739762127
 31
0.0
  0
LINE
  5
5E8
  8
DIM
 10
26.4117024918027
 20
-17.23407083512109
 30
0.0
 11
26.9653431168026
 21
-17.2340708351212
 31
0.0
  0
LINE
  5
5E9
  8
DIM
 10
26.87306967930267
 20
-14.8718708351212
 30
0.0
 11
26.87306967930267
 21
-17.14179739762127
 31
0.0
  0
LINE
  5
5EA
  8
DIM
 10
26.9653431168026
 20
-14.96414427262121
 30
0.0
 11
27.29752749180271
 21
-14.96414427262121
 31
0.0
  0
LINE
  5
5EB
  8
DIM
 10
27.20525405430259
 20
-14.8718708351212
 30
0.0
 11
26.87306967930267
 21
-14.8718708351212
 31
0.0
  0
LINE
  5
5EC
  8
DIM
 10
26.5039759293026
 20
-14.8718708351212
 30
0.0
 11
26.5039759293026
 21
-17.14179739762127
 31
0.0
  0
LINE
  5
5ED
  8
DIM
 10
26.4117024918027
 20
-14.96414427262121
 30
0.0
 11
26.4117024918027
 21
-17.23407083512109
 31
0.0
  0
LINE
  5
5EE
  8
DIM
 10
26.9653431168026
 20
-14.96414427262121
 30
0.0
 11
26.9653431168026
 21
-17.2340708351212
 31
0.0
  0
LINE
  5
5EF
  8
DIM
 10
27.20525405430259
 20
-14.59505052262125
 30
0.0
 11
27.20525405430259
 21
-14.8718708351212
 31
0.0
  0
LINE
  5
5F0
  8
DIM
 10
27.29752749180271
 20
-14.50277708512124
 30
0.0
 11
27.29752749180271
 21
-14.96414427262121
 31
0.0
  0
LINE
  5
5F1
  8
DIM
 10
26.17179155430271
 20
-14.59505052262125
 30
0.0
 11
27.20525405430259
 21
-14.59505052262125
 31
0.0
  0
LINE
  5
5F2
  8
DIM
 10
26.17179155430271
 20
-14.8718708351212
 30
0.0
 11
26.5039759293026
 21
-14.8718708351212
 31
0.0
  0
LINE
  5
5F3
  8
DIM
 10
26.07951811680259
 20
-14.96414427262121
 30
0.0
 11
26.4117024918027
 21
-14.96414427262121
 31
0.0
  0
LINE
  5
5F4
  8
DIM
 10
26.17179155430271
 20
-14.59505052262125
 30
0.0
 11
26.17179155430271
 21
-14.8718708351212
 31
0.0
  0
LINE
  5
5F5
  8
DIM
 10
26.07951811680259
 20
-14.50277708512124
 30
0.0
 11
26.07951811680259
 21
-14.96414427262121
 31
0.0
  0
ARC
  5
5F6
  8
DIM
 10
25.58124155430262
 20
-15.88687864762119
 30
0.0
 40
0.332184375
 50
270.0
 51
0.0
  0
ARC
  5
5F7
  8
DIM
 10
25.58124155430262
 20
-15.88687864762119
 30
0.0
 40
0.4244578125
 50
270.0
 51
0.0
  0
LINE
  5
5F8
  8
DIM
 10
25.13832905430262
 20
-16.21906302262119
 30
0.0
 11
25.58124155430262
 21
-16.21906302262119
 31
0.0
  0
LINE
  5
5F9
  8
DIM
 10
25.23060249180251
 20
-16.31133646012111
 30
0.0
 11
25.58124155430262
 21
-16.31133646012111
 31
0.0
  0
LINE
  5
5FA
  8
DIM
 10
25.23060249180251
 20
-17.23407083512109
 30
0.0
 11
25.23060249180251
 21
-16.31133646012123
 31
0.0
  0
LINE
  5
5FB
  8
DIM
 10
25.13832905430262
 20
-17.14179739762127
 30
0.0
 11
25.13832905430262
 21
-16.21906302262119
 31
0.0
  0
ARC
  5
5FC
  8
DIM
 10
25.39669467930257
 20
-15.73924114762121
 30
0.0
 40
0.1660921875
 50
270.0
 51
0.0
  0
LINE
  5
5FD
  8
DIM
 10
25.23060249180251
 20
-15.81305989762126
 30
0.0
 11
25.3782399918026
 21
-15.81305989762114
 31
0.0
  0
LINE
  5
5FE
  8
DIM
 10
25.13832905430262
 20
-15.90533333512118
 30
0.0
 11
25.39669467930257
 21
-15.90533333512118
 31
0.0
  0
ARC
  5
5FF
  8
DIM
 10
25.3782399918026
 20
-15.05641771012125
 30
0.0
 40
0.0922734375
 50
0.0
 51
90.0
  0
LINE
  5
600
  8
DIM
 10
25.4705134293025
 20
-15.05641771012125
 30
0.0
 11
25.4705134293025
 21
-15.72078646012113
 31
0.0
  0
ARC
  5
601
  8
DIM
 10
25.39669467930257
 20
-15.03796302262126
 30
0.0
 40
0.1660921875
 50
0.0
 51
90.0
  0
LINE
  5
602
  8
DIM
 10
25.56278686680263
 20
-15.03796302262126
 30
0.0
 11
25.56278686680263
 21
-15.73924114762121
 31
0.0
  0
LINE
  5
603
  8
DIM
 10
25.23060249180274
 20
-14.96414427262121
 30
0.0
 11
25.3782399918026
 21
-14.96414427262121
 31
0.0
  0
LINE
  5
604
  8
DIM
 10
25.23060249180274
 20
-14.96414427262121
 30
0.0
 11
25.23060249180274
 21
-15.81305989762126
 31
0.0
  0
ARC
  5
605
  8
DIM
 10
25.58124155430262
 20
-14.92723489762125
 30
0.0
 40
0.332184375
 50
0.0
 51
90.0
  0
ARC
  5
606
  8
DIM
 10
25.58124155430262
 20
-14.92723489762125
 30
0.0
 40
0.4244578125
 50
0.0
 51
90.0
  0
LINE
  5
607
  8
DIM
 10
26.07951811680259
 20
-14.50277708512124
 30
0.0
 11
27.29752749180271
 21
-14.50277708512124
 31
0.0
  0
LINE
  5
608
  8
DIM
 10
25.91342592930253
 20
-14.92723489762125
 30
0.0
 11
25.91342592930253
 21
-15.88687864762119
 31
0.0
  0
LINE
  5
609
  8
DIM
 10
25.13832905430262
 20
-14.8718708351212
 30
0.0
 11
25.39669467930257
 21
-14.8718708351212
 31
0.0
  0
LINE
  5
60A
  8
DIM
 10
25.13832905430262
 20
-14.8718708351212
 30
0.0
 11
25.13832905430262
 21
-15.90533333512118
 31
0.0
  0
LINE
  5
60B
  8
DIM
 10
26.00569936680266
 20
-14.92723489762125
 30
0.0
 11
26.00569936680266
 21
-15.88687864762119
 31
0.0
  0
LINE
  5
60C
  8
DIM
 10
24.76923530430254
 20
-17.14179739762127
 30
0.0
 11
25.13832905430262
 21
-17.14179739762127
 31
0.0
  0
LINE
  5
60D
  8
DIM
 10
24.76923530430254
 20
-14.59505052262125
 30
0.0
 11
25.58124155430262
 21
-14.59505052262125
 31
0.0
  0
LINE
  5
60E
  8
DIM
 10
24.76923530430254
 20
-14.59505052262125
 30
0.0
 11
24.76923530430274
 21
-17.14179739762127
 31
0.0
  0
LINE
  5
60F
  8
DIM
 10
24.67696186680261
 20
-17.2340708351212
 30
0.0
 11
25.23060249180251
 21
-17.23407083512109
 31
0.0
  0
LINE
  5
610
  8
DIM
 10
24.67696186680261
 20
-14.50277708512124
 30
0.0
 11
25.58124155430262
 21
-14.50277708512124
 31
0.0
  0
LINE
  5
611
  8
DIM
 10
24.67696186680261
 20
-14.50277708512124
 30
0.0
 11
24.67696186680261
 21
-17.2340708351212
 31
0.0
  0
LINE
  5
612
  8
DIM
 10
23.44049780430275
 20
-16.77774044998009
 30
0.0
 11
23.44049780430275
 21
-17.14179739762127
 31
0.0
  0
LINE
  5
613
  8
DIM
 10
23.73388259384051
 20
-16.36691229233941
 30
0.0
 11
23.53277124180265
 21
-16.79819697857744
 31
0.0
  0
LINE
  5
614
  8
DIM
 10
23.74440019265306
 20
-16.12601967500322
 30
0.0
 11
23.44049780430275
 21
-16.77774044998009
 31
0.0
  0
LINE
  5
615
  8
DIM
 10
23.53277124180265
 20
-16.79819697857744
 30
0.0
 11
23.53277124180265
 21
-17.2340708351212
 31
0.0
  0
LINE
  5
616
  8
DIM
 10
24.04950249180258
 20
-17.2340708351212
 30
0.0
 11
24.60314311680268
 21
-17.2340708351212
 31
0.0
  0
LINE
  5
617
  8
DIM
 10
24.10828715469641
 20
-14.59505052262125
 30
0.0
 11
24.45830283280792
 21
-14.59505052262125
 31
0.0
  0
LINE
  5
618
  8
DIM
 10
24.10828715469641
 20
-14.59505052262125
 30
0.0
 11
23.44049780430275
 21
-16.02712940598306
 31
0.0
  0
LINE
  5
619
  8
DIM
 10
24.04950249180258
 20
-14.50277708512124
 30
0.0
 11
23.53277124180265
 21
-15.61091082678976
 31
0.0
  0
LINE
  5
61A
  8
DIM
 10
24.04950249180258
 20
-14.50277708512124
 30
0.0
 11
24.60314311680268
 21
-14.50277708512124
 31
0.0
  0
LINE
  5
61B
  8
DIM
 10
24.45830283280792
 20
-14.59505052262125
 30
0.0
 11
23.9450419123129
 21
-15.69574211865009
 31
0.0
  0
LINE
  5
61C
  8
DIM
 10
24.60314311680268
 20
-14.50277708512124
 30
0.0
 11
24.04482290148904
 21
-15.70009865072183
 31
0.0
  0
LINE
  5
61D
  8
DIM
 10
24.11411304831672
 20
-17.14179739762127
 30
0.0
 11
23.74440019265306
 21
-16.12601967500322
 31
0.0
  0
LINE
  5
61E
  8
DIM
 10
24.04950249180258
 20
-17.2340708351212
 30
0.0
 11
23.73388259384051
 21
-16.36691229233941
 31
0.0
  0
LINE
  5
61F
  8
DIM
 10
24.47136299096199
 20
-17.14179739762127
 30
0.0
 11
23.9450419123129
 21
-15.69574211865009
 31
0.0
  0
LINE
  5
620
  8
DIM
 10
24.60314311680268
 20
-17.2340708351212
 30
0.0
 11
24.04482290148904
 21
-15.70009865072183
 31
0.0
  0
LINE
  5
621
  8
DIM
 10
24.47136299096199
 20
-17.14179739762127
 30
0.0
 11
24.11411304831672
 21
-17.14179739762127
 31
0.0
  0
LINE
  5
622
  8
DIM
 10
23.10831342930264
 20
-17.14179739762127
 30
0.0
 11
23.44049780430275
 21
-17.14179739762127
 31
0.0
  0
LINE
  5
623
  8
DIM
 10
23.10831342930264
 20
-14.59505052262125
 30
0.0
 11
23.44049780430275
 21
-14.59505052262125
 31
0.0
  0
LINE
  5
624
  8
DIM
 10
23.44049780430275
 20
-14.59505052262125
 30
0.0
 11
23.44049780430275
 21
-16.02712940598306
 31
0.0
  0
LINE
  5
625
  8
DIM
 10
23.53277124180265
 20
-14.50277708512124
 30
0.0
 11
23.53277124180265
 21
-15.61091082678976
 31
0.0
  0
LINE
  5
626
  8
DIM
 10
23.10831342930264
 20
-14.59505052262125
 30
0.0
 11
23.10831342930264
 21
-17.14179739762127
 31
0.0
  0
LINE
  5
627
  8
DIM
 10
23.01603999180271
 20
-14.50277708512124
 30
0.0
 11
23.53277124180265
 21
-14.50277708512124
 31
0.0
  0
LINE
  5
628
  8
DIM
 10
23.01603999180271
 20
-17.2340708351212
 30
0.0
 11
23.53277124180265
 21
-17.2340708351212
 31
0.0
  0
LINE
  5
629
  8
DIM
 10
23.01603999180271
 20
-14.50277708512124
 30
0.0
 11
23.01603999180271
 21
-17.2340708351212
 31
0.0
  0
LINE
  5
62A
  8
DIM
 10
27.66662124180276
 20
-14.13368333512125
 30
0.0
 11
27.66662124180276
 21
-17.60316458512128
 31
0.0
  0
LINE
  5
62B
  8
DIM
 10
22.57312749180271
 20
-14.13368333512125
 30
0.0
 11
22.57312749180271
 21
-17.60316458512128
 31
0.0
  0
LINE
  5
62C
  8
DIM
 10
22.57312749180271
 20
-14.13368333512125
 30
0.0
 11
27.66662124180276
 21
-14.13368333512125
 31
0.0
  0
LINE
  5
62D
  8
DIM
 10
22.57312749180271
 20
-17.60316458512128
 30
0.0
 11
27.66662124180276
 21
-17.60316458512128
 31
0.0
  0
TEXT
  5
62E
  8
DIM
 10
22.56006080477987
 20
-20.85654850102048
 30
0.0
 40
2.3622
  1
11.335.107
 41
0.9771342748489944
 72
     5
 11
39.10206465712598
 21
-20.85654850102048
 31
0.0
  0
TEXT
  5
62F
  8
DIM
 10
22.60236772000324
 20
-23.03065004638427
 30
0.0
 40
1.476375
  1
MADE IN USA
 41
1.075984373670863
 72
     5
 11
39.01745082667922
 21
-23.03065004638427
 31
0.0
  0
POINT
  5
630
  8
DEFPOINTS
  6
BYBLOCK
 62
     0
 10
38.44093428039962
 20
-14.13368333512125
 30
0.0
  0
POINT
  5
631
  8
DEFPOINTS
  6
BYBLOCK
 62
     0
 10
39.07413597235318
 20
-17.60316458512128
 30
0.0
  0
LINE
  5
632
  8
LINE
 10
-0.0000000000000568
 20
-31.00069999999994
 30
0.0
 11
-0.0000000000000142
 21
-0.0000000000000284
 31
0.0
  0
LINE
  5
633
  8
LINE
 10
-34.925
 20
-17.99590000000003
 30
0.0
 11
-15.83690000000001
 21
-17.99590000000003
 31
0.0
  0
LINE
  5
634
  8
LINE
 10
-40.005
 20
-16.8153488911762
 30
0.0
 11
-40.005
 21
0.0
 31
0.0
  0
LINE
  5
635
  8
LINE
 10
1.003299999999967
 20
-32.00399999999996
 30
0.0
 11
8.000000000000043
 21
-32.00399999999999
 31
0.0
  0
LINE
  5
636
  8
LINE
 10
-34.925
 20
-17.99590000000001
 30
0.0
 11
-34.925
 21
0.0
 31
0.0
  0
LINE
  5
637
  8
LINE
 10
-38.84238411520312
 20
-17.79089945131008
 30
0.0
 11
-37.75186034502296
 21
-17.5986106875234
 31
0.0
  0
LINE
  5
638
  8
LINE
 10
-34.925
 20
-17.99590000000003
 30
0.0
 11
-37.75186034502296
 21
-17.5986106875234
 31
0.0
  0
ARC
  5
639
  8
LINE
 10
-39.01439999999999
 20
-16.8153488911762
 30
0.0
 40
0.9905999999999999
 50
180.0
 51
280.0000000000001
  0
LINE
  5
63A
  8
LINE
 10
-0.0000000000000568
 20
-31.00069999999994
 30
0.0
 11
1.003299999999982
 21
-32.00399999999996
 31
0.0
  0
LINE
  5
63B
  8
LINE
 10
1.003299999999967
 20
-32.00399999999996
 30
0.0
 11
1.003299999999967
 21
0.0
 31
0.0
  0
LINE
  5
63C
  8
LINE
 10
-2.031999999999996
 20
-17.99590000000003
 30
0.0
 11
-0.0000000000000142
 21
-17.45142724098
 31
0.0
  0
LINE
  5
63D
  8
HIDDEN
 10
-37.75186034502296
 20
10.99999999999997
 30
0.0
 11
-40.005
 21
12.30085078632277
 31
0.0
  0
LINE
  5
63E
  8
HIDDEN
 10
-37.75186034502296
 20
10.99999999999997
 30
0.0
 11
11.30196099003915
 21
10.99999999999997
 31
0.0
  0
LINE
  5
63F
  8
LINE
 10
-2.031999999999996
 20
17.99590000000003
 30
0.0
 11
-0.0000000000000142
 21
17.45142724098
 31
0.0
  0
LINE
  5
640
  8
LINE
 10
1.003299999999967
 20
32.00399999999996
 30
0.0
 11
1.003299999999967
 21
0.0
 31
0.0
  0
LINE
  5
641
  8
LINE
 10
0.0
 20
31.00069999999999
 30
0.0
 11
1.003299999999982
 21
32.00399999999996
 31
0.0
  0
ARC
  5
642
  8
LINE
 10
-39.01439999999999
 20
16.8153488911762
 30
0.0
 40
0.9905999999999999
 50
79.99999999999989
 51
180.0
  0
LINE
  5
643
  8
LINE
 10
-34.925
 20
17.99590000000003
 30
0.0
 11
-37.75186034502296
 21
17.5986106875234
 31
0.0
  0
LINE
  5
644
  8
LINE
 10
-38.84238411520312
 20
17.79089945131008
 30
0.0
 11
-37.75186034502296
 21
17.5986106875234
 31
0.0
  0
LINE
  5
645
  8
LINE
 10
-34.925
 20
17.99590000000001
 30
0.0
 11
-34.925
 21
0.0
 31
0.0
  0
LINE
  5
646
  8
LINE
 10
1.003299999999967
 20
32.00399999999996
 30
0.0
 11
7.999999999999986
 21
32.00400000000002
 31
0.0
  0
LINE
  5
647
  8
LINE
 10
0.0
 20
31.00069999999999
 30
0.0
 11
0.0
 21
0.0
 31
0.0
  0
LINE
  5
648
  8
LINE
 10
-40.005
 20
16.8153488911762
 30
0.0
 11
-40.005
 21
0.0
 31
0.0
  0
LINE
  5
649
  8
LINE
 10
-34.925
 20
17.99590000000003
 30
0.0
 11
-15.83689999999999
 21
17.99590000000006
 31
0.0
  0
CIRCLE
  5
64A
  8
LINE
 10
-15.494
 20
0.0
 30
0.0
 40
4.5
  0
POLYLINE
  5
64B
  8
LINE
 66
     1
 10
0.0
 20
0.0
 30
0.0
 70
     1
  0
VERTEX
  5
890
  8
LINE
 10
-9.609409599878987
 20
0.0
 30
0.0
 42
0.1115408558816134
  0
VERTEX
  5
891
  8
LINE
 10
-10.04377805716032
 20
1.922902233633778
 30
0.0
 42
0.1029733543267754
  0
VERTEX
  5
892
  8
LINE
 10
-11.33296622356917
 20
3.620330557136072
 30
0.0
 42
0.0927957371124016
  0
VERTEX
  5
893
  8
LINE
 10
-13.2060612184081
 20
4.720228740587601
 30
0.0
 42
0.086691132597254
  0
VERTEX
  5
894
  8
LINE
 10
-15.494
 20
5.119920574175552
 30
0.0
 42
0.086691132597254
  0
VERTEX
  5
895
  8
LINE
 10
-17.78193878159189
 20
4.720228740587601
 30
0.0
 42
0.0927957371124025
  0
VERTEX
  5
896
  8
LINE
 10
-19.65503377643083
 20
3.620330557136043
 30
0.0
 42
0.1029733543267735
  0
VERTEX
  5
897
  8
LINE
 10
-20.94422194283966
 20
1.922902233633806
 30
0.0
 42
0.1115408558816151
  0
VERTEX
  5
898
  8
LINE
 10
-21.37859040012101
 20
0.0
 30
0.0
 42
0.1115408558816122
  0
VERTEX
  5
899
  8
LINE
 10
-20.94422194283968
 20
-1.922902233633778
 30
0.0
 42
0.1029733543267726
  0
VERTEX
  5
89A
  8
LINE
 10
-19.65503377643083
 20
-3.620330557136043
 30
0.0
 42
0.0927957371123995
  0
VERTEX
  5
89B
  8
LINE
 10
-17.78193878159192
 20
-4.720228740587601
 30
0.0
 42
0.0866911325972534
  0
VERTEX
  5
89C
  8
LINE
 10
-15.494
 20
-5.119920574175552
 30
0.0
 42
0.0866911325972539
  0
VERTEX
  5
89D
  8
LINE
 10
-13.2060612184081
 20
-4.720228740587601
 30
0.0
 42
0.0927957371124012
  0
VERTEX
  5
89E
  8
LINE
 10
-11.33296622356917
 20
-3.620330557136043
 30
0.0
 42
0.1029733543267762
  0
VERTEX
  5
89F
  8
LINE
 10
-10.04377805716032
 20
-1.922902233633778
 30
0.0
 42
0.1115408558816135
  0
SEQEND
  5
8C1
  8
LINE
  0
LINE
  5
65D
  8
LINE
 10
-13.58286681405679
 20
21.5
 30
0.0
 11
-4.095533185943182
 21
21.5
 31
0.0
  0
LINE
  5
65E
  8
LINE
 10
-15.83689999999999
 20
17.99590000000006
 30
0.0
 11
-13.92927697557056
 21
21.30000000000001
 31
0.0
  0
LINE
  5
65F
  8
LINE
 10
-1.841499999999996
 20
17.99590000000006
 30
0.0
 11
-3.749123024429409
 21
21.30000000000001
 31
0.0
  0
LINE
  5
660
  8
LINE
 10
-1.841499999999982
 20
17.99590000000006
 30
0.0
 11
-1.841499999999982
 21
17.94485567884189
 31
0.0
  0
ARC
  5
661
  8
LINE
 10
-13.58286681405679
 20
21.09999999999999
 30
0.0
 40
0.4
 50
90.0
 51
150.0000000000014
  0
ARC
  5
662
  8
LINE
 10
-4.095533185943182
 20
21.09999999999999
 30
0.0
 40
0.4
 50
29.99999999999872
 51
90.0
  0
ARC
  5
663
  8
LINE
 10
-4.095533185943182
 20
-21.09999999999999
 30
0.0
 40
0.4
 50
270.0
 51
330.0000000000013
  0
ARC
  5
664
  8
LINE
 10
-13.58286681405679
 20
-21.09999999999999
 30
0.0
 40
0.4
 50
209.9999999999987
 51
270.0
  0
LINE
  5
665
  8
LINE
 10
-1.841499999999982
 20
-17.99590000000006
 30
0.0
 11
-1.841499999999982
 21
-17.94485567884189
 31
0.0
  0
LINE
  5
666
  8
LINE
 10
-1.841499999999996
 20
-17.99590000000006
 30
0.0
 11
-3.749123024429409
 21
-21.30000000000001
 31
0.0
  0
LINE
  5
667
  8
LINE
 10
-15.83689999999999
 20
-17.99590000000003
 30
0.0
 11
-13.92927697557056
 21
-21.29999999999998
 31
0.0
  0
LINE
  5
668
  8
LINE
 10
-13.58286681405679
 20
-21.5
 30
0.0
 11
-4.095533185943182
 21
-21.5
 31
0.0
  0
ARC
  5
669
  8
LINE
 10
-8.93444999999997
 20
41.82122517417454
 30
0.0
 40
24.80503851352893
 50
253.8431355893573
 51
286.1568644106425
  0
ARC
  5
66A
  8
LINE
 10
-8.93444999999997
 20
-41.82122517417454
 30
0.0
 40
24.80503851352893
 50
73.8431355893575
 51
106.1568644106427
  0
LINE
  5
66B
  8
LINE
 10
-15.83689999999999
 20
4.486916490196847
 30
0.0
 11
-15.83689999999999
 21
-4.486916490196762
 31
0.0
  0
LINE
  5
66C
  8
LINE
 10
10.00000000000001
 20
30.00399999999999
 30
0.0
 11
10.00000000000007
 21
-30.00399999999996
 31
0.0
  0
LINE
  5
66D
  8
LINE
 10
8.000000000000014
 20
32.00399999999999
 30
0.0
 11
10.00000000000001
 21
30.00399999999999
 31
0.0
  0
LINE
  5
66E
  8
LINE
 10
10.00000000000004
 20
-30.00399999999999
 30
0.0
 11
8.000000000000043
 21
-32.00399999999999
 31
0.0
  0
LINE
  5
66F
  8
LINE
 10
8.000000000000014
 20
32.00399999999999
 30
0.0
 11
8.000000000000043
 21
-32.00399999999999
 31
0.0
  0
ARC
  5
670
  8
LINE
 10
16.00000000000004
 20
-29.81249999999983
 30
0.0
 40
6.0
 50
90.0
 51
180.0
  0
ARC
  5
671
  8
LINE
 10
16.00000000000004
 20
29.81249999999977
 30
0.0
 40
6.0
 50
180.0
 51
270.0
  0
LINE
  5
672
  8
HIDDEN
 10
11.30196099003915
 20
-11.0
 30
0.0
 11
11.30196099003915
 21
10.99999999999997
 31
0.0
  0
LINE
  5
673
  8
HIDDEN
 10
13.19999999999997
 20
-14.28749999999988
 30
0.0
 11
11.30196099003915
 21
-11.0
 31
0.0
  0
LINE
  5
674
  8
HIDDEN
 10
-37.75186034502296
 20
-11.0
 30
0.0
 11
11.30196099003915
 21
-11.0
 31
0.0
  0
LINE
  5
675
  8
HIDDEN
 10
-37.75186034502296
 20
-11.0
 30
0.0
 11
-40.005
 21
-12.3008507863228
 31
0.0
  0
LINE
  5
676
  8
HIDDEN
 10
21.2081672454792
 20
-14.36041846350514
 30
0.0
 11
20.16538463493866
 21
-14.28749999999991
 31
0.0
  0
LINE
  5
677
  8
LINE
 10
83.31191998999911
 20
26.92400000000001
 30
0.0
 11
83.31191998999911
 21
-0.0000000000000284
 31
0.0
  0
LINE
  5
678
  8
LINE
 10
77.77754003793443
 20
27.94000000000017
 30
0.0
 11
82.29591999
 21
27.94000000000017
 31
0.0
  0
LINE
  5
679
  8
LINE
 10
76.96191998999909
 20
28.17662284570318
 30
0.0
 11
76.96191998999909
 21
-0.0000000000000284
 31
0.0
  0
ARC
  5
67A
  8
LINE
 10
82.29591999
 20
26.92400000000001
 30
0.0
 40
1.016
 50
0.0
 51
90.0
  0
LINE
  5
67B
  8
LINE
 10
75.07015700341849
 20
30.98799999999991
 30
0.0
 11
57.81031999000002
 21
30.98799999999991
 31
0.0
  0
LINE
  5
67C
  8
LINE
 10
55.77831998999902
 20
27.46847275902013
 30
0.0
 11
55.77831998999902
 21
-0.0000000000000284
 31
0.0
  0
LINE
  5
67D
  8
LINE
 10
57.81031999000002
 20
30.98799999999991
 30
0.0
 11
57.81031999000002
 21
11.98855783653732
 31
0.0
  0
LINE
  5
67E
  8
LINE
 10
74.9299199899995
 20
30.98799999999991
 30
0.0
 11
74.9299199899995
 21
11.98855783653732
 31
0.0
  0
LINE
  5
67F
  8
LINE
 10
76.50949538936378
 20
28.61863690095274
 30
0.0
 11
74.9299199899995
 21
30.98799999999991
 31
0.0
  0
LINE
  5
680
  8
LINE
 10
57.81031999000002
 20
30.98799999999991
 30
0.0
 11
55.77831998999902
 21
27.46847275902013
 31
0.0
  0
LINE
  5
681
  8
LINE
 10
57.81031999000002
 20
18.75239699487196
 30
0.0
 11
74.9299199899995
 21
18.75239699487196
 31
0.0
  0
LINE
  5
682
  8
LINE
 10
57.81031999000002
 20
11.98855783653732
 30
0.0
 11
74.9299199899995
 21
11.98855783653732
 31
0.0
  0
LINE
  5
683
  8
LINE
 10
57.81031999000002
 20
-11.98855783653707
 30
0.0
 11
74.9299199899995
 21
-11.98855783653707
 31
0.0
  0
LINE
  5
684
  8
LINE
 10
57.81031999000002
 20
-18.7523969948717
 30
0.0
 11
74.9299199899995
 21
-18.7523969948717
 31
0.0
  0
LINE
  5
685
  8
LINE
 10
57.81031999000002
 20
-30.98800000000003
 30
0.0
 11
55.77831998999902
 21
-27.46847275901987
 31
0.0
  0
LINE
  5
686
  8
LINE
 10
76.50949538936378
 20
-28.61863690095248
 30
0.0
 11
74.9299199899995
 21
-30.98800000000003
 31
0.0
  0
LINE
  5
687
  8
LINE
 10
74.9299199899995
 20
-30.98800000000003
 30
0.0
 11
74.9299199899995
 21
-11.98855783653707
 31
0.0
  0
LINE
  5
688
  8
LINE
 10
57.81031999000002
 20
-30.98800000000003
 30
0.0
 11
57.81031999000002
 21
-11.98855783653707
 31
0.0
  0
LINE
  5
689
  8
LINE
 10
55.77831998999902
 20
-27.46847275901987
 30
0.0
 11
55.77831998999902
 21
-0.0000000000000284
 31
0.0
  0
LINE
  5
68A
  8
LINE
 10
75.07015700341849
 20
-30.98800000000003
 30
0.0
 11
57.81031999000002
 21
-30.98800000000003
 31
0.0
  0
ARC
  5
68B
  8
LINE
 10
82.29591999
 20
-26.92399999999975
 30
0.0
 40
1.016
 50
270.0
 51
0.0
  0
LINE
  5
68C
  8
LINE
 10
76.96191998999909
 20
-28.17662284570326
 30
0.0
 11
76.96191998999909
 21
-0.0000000000000284
 31
0.0
  0
LINE
  5
68D
  8
LINE
 10
77.77754003793443
 20
-27.93999999999991
 30
0.0
 11
82.29591999
 21
-27.93999999999991
 31
0.0
  0
LINE
  5
68E
  8
LINE
 10
83.31191998999911
 20
-26.92399999999975
 30
0.0
 11
83.31191998999911
 21
-0.0000000000000284
 31
0.0
  0
ARC
  5
68F
  8
LINE
 10
37.5915394644674
 20
-0.0000000000000568
 30
0.0
 40
39.21581542272799
 50
342.1992831109808
 51
17.80071688901924
  0
ARC
  5
690
  8
LINE
 10
95.14870051553218
 20
-0.0000000000000568
 30
0.0
 40
39.21581542272799
 50
162.1992831109808
 51
197.8007168890192
  0
POLYLINE
  5
691
  8
LINE
 66
     1
 10
0.0
 20
0.0
 30
0.0
 70
     1
  0
VERTEX
  5
8A0
  8
LINE
 10
69.9234482612669
 20
15.41101728440705
 30
0.0
 42
0.1138299733719176
  0
VERTEX
  5
8A1
  8
LINE
 10
69.66265082412126
 20
16.54173096455602
 30
0.0
 42
0.1035777534297288
  0
VERTEX
  5
8A2
  8
LINE
 10
68.88270250639435
 20
17.54712331952314
 30
0.0
 42
0.0917564003674156
  0
VERTEX
  5
8A3
  8
LINE
 10
67.75493597066183
 20
18.19522048871352
 30
0.0
 42
0.0848498122635044
  0
VERTEX
  5
8A4
  8
LINE
 10
66.3701199899998
 20
18.43192740993501
 30
0.0
 42
0.0848498122634992
  0
VERTEX
  5
8A5
  8
LINE
 10
64.98530400933628
 20
18.19522048871352
 30
0.0
 42
0.0917564003674167
  0
VERTEX
  5
8A6
  8
LINE
 10
63.8575374736037
 20
17.54712331952314
 30
0.0
 42
0.1035777534297323
  0
VERTEX
  5
8A7
  8
LINE
 10
63.07758915587685
 20
16.54173096455602
 30
0.0
 42
0.1138299733719224
  0
VERTEX
  5
8A8
  8
LINE
 10
62.81679171873121
 20
15.41101728440705
 30
0.0
 42
0.1138299733719198
  0
VERTEX
  5
8A9
  8
LINE
 10
63.07758915587685
 20
14.28030360425845
 30
0.0
 42
0.1035777534297343
  0
VERTEX
  5
8AA
  8
LINE
 10
63.8575374736037
 20
13.27491124929134
 30
0.0
 42
0.0917564003674129
  0
VERTEX
  5
8AB
  8
LINE
 10
64.98530400933628
 20
12.62681408010059
 30
0.0
 42
0.0848498122634952
  0
VERTEX
  5
8AC
  8
LINE
 10
66.3701199899998
 20
12.39010715887912
 30
0.0
 42
0.0848498122635018
  0
VERTEX
  5
8AD
  8
LINE
 10
67.75493597066183
 20
12.62681408010059
 30
0.0
 42
0.0917564003674161
  0
VERTEX
  5
8AE
  8
LINE
 10
68.88270250639435
 20
13.27491124929134
 30
0.0
 42
0.1035777534297351
  0
VERTEX
  5
8AF
  8
LINE
 10
69.66265082412126
 20
14.28030360425845
 30
0.0
 42
0.1138299733719235
  0
SEQEND
  5
8C2
  8
LINE
  0
POLYLINE
  5
6A3
  8
LINE
 66
     1
 10
0.0
 20
0.0
 30
0.0
 70
     1
  0
VERTEX
  5
8B0
  8
LINE
 10
69.9234482612669
 20
-15.4110172844068
 30
0.0
 42
-0.1138299733719176
  0
VERTEX
  5
8B1
  8
LINE
 10
69.66265082412126
 20
-16.54173096455574
 30
0.0
 42
-0.1035777534297288
  0
VERTEX
  5
8B2
  8
LINE
 10
68.88270250639435
 20
-17.54712331952288
 30
0.0
 42
-0.0917564003674156
  0
VERTEX
  5
8B3
  8
LINE
 10
67.75493597066183
 20
-18.19522048871326
 30
0.0
 42
-0.0848498122635044
  0
VERTEX
  5
8B4
  8
LINE
 10
66.3701199899998
 20
-18.43192740993473
 30
0.0
 42
-0.0848498122634992
  0
VERTEX
  5
8B5
  8
LINE
 10
64.98530400933628
 20
-18.19522048871326
 30
0.0
 42
-0.0917564003674167
  0
VERTEX
  5
8B6
  8
LINE
 10
63.8575374736037
 20
-17.54712331952288
 30
0.0
 42
-0.1035777534297323
  0
VERTEX
  5
8B7
  8
LINE
 10
63.07758915587685
 20
-16.54173096455574
 30
0.0
 42
-0.1138299733719224
  0
VERTEX
  5
8B8
  8
LINE
 10
62.81679171873121
 20
-15.4110172844068
 30
0.0
 42
-0.1138299733719198
  0
VERTEX
  5
8B9
  8
LINE
 10
63.07758915587685
 20
-14.28030360425819
 30
0.0
 42
-0.1035777534297343
  0
VERTEX
  5
8BA
  8
LINE
 10
63.8575374736037
 20
-13.27491124929105
 30
0.0
 42
-0.0917564003674129
  0
VERTEX
  5
8BB
  8
LINE
 10
64.98530400933628
 20
-12.62681408010033
 30
0.0
 42
-0.0848498122634952
  0
VERTEX
  5
8BC
  8
LINE
 10
66.3701199899998
 20
-12.39010715887883
 30
0.0
 42
-0.0848498122635018
  0
VERTEX
  5
8BD
  8
LINE
 10
67.75493597066183
 20
-12.62681408010033
 30
0.0
 42
-0.0917564003674161
  0
VERTEX
  5
8BE
  8
LINE
 10
68.88270250639435
 20
-13.27491124929105
 30
0.0
 42
-0.1035777534297351
  0
VERTEX
  5
8BF
  8
LINE
 10
69.66265082412126
 20
-14.28030360425819
 30
0.0
 42
-0.1138299733719235
  0
SEQEND
  5
8C3
  8
LINE
  0
ARC
  5
6B5
  8
LINE
 10
77.77754003793443
 20
29.46400000000023
 30
0.0
 40
1.524
 50
213.6900675259802
 51
270.0
  0
ARC
  5
6B6
  8
LINE
 10
77.77754003793443
 20
-29.46399999999997
 30
0.0
 40
1.524
 50
90.0
 51
146.3099324740199
  0
LINE
  5
6B7
  8
HIDDEN
 10
61.99999999999996
 20
23.81249999999974
 30
0.0
 11
63.99999999999996
 21
21.81249999999974
 31
0.0
  0
LINE
  5
6B8
  8
HIDDEN
 10
63.99999999999996
 20
-21.8124999999998
 30
0.0
 11
61.99999999999996
 21
-23.8124999999998
 31
0.0
  0
LINE
  5
6B9
  8
LINE
 10
55.77831998999902
 20
23.81249999999974
 30
0.0
 11
45.7
 21
23.81249999999974
 31
0.0
  0
LINE
  5
6BA
  8
LINE
 10
55.77831998999899
 20
-23.8124999999998
 30
0.0
 11
16.00000000000004
 21
-23.81249999999983
 31
0.0
  0
LINE
  5
789
  8
BORDER
 10
35.40216168114029
 20
41.4994936548901
 30
0.0
 11
37.12483644871546
 21
41.4994936548901
 31
0.0
  0
LINE
  5
78A
  8
BORDER
 10
33.78997807847101
 20
33.20552803031222
 30
0.0
 11
36.96639044533067
 21
33.20552803031222
 31
0.0
  0
LINE
  5
78B
  8
BORDER
 10
35.12792819157553
 20
34.30844899102726
 30
0.0
 11
36.67086366491656
 21
34.30844899102726
 31
0.0
  0
LINE
  5
78C
  8
BORDER
 10
35.12792819157553
 20
34.30844899102726
 30
0.0
 11
36.09787646686294
 21
39.29840028474977
 31
0.0
  0
LINE
  5
78D
  8
BORDER
 10
18.62234207747478
 20
41.4994936548901
 30
0.0
 11
19.85761355347578
 21
41.4994936548901
 31
0.0
  0
LINE
  5
78E
  8
BORDER
 10
18.62234207747478
 20
33.20552803031222
 30
0.0
 11
19.85761355347578
 21
33.20552803031222
 31
0.0
  0
LINE
  5
78F
  8
BORDER
 10
12.85308188519074
 20
33.20552803031222
 30
0.0
 11
12.85308188519074
 21
41.4994936548901
 31
0.0
  0
LINE
  5
790
  8
BORDER
 10
18.62234207747478
 20
33.20552803031222
 30
0.0
 11
18.62234207747478
 21
41.4994936548901
 31
0.0
  0
LINE
  5
791
  8
BORDER
 10
14.176587038049
 20
34.30844899102726
 30
0.0
 11
14.176587038049
 21
36.80105036103782
 31
0.0
  0
LINE
  5
792
  8
BORDER
 10
12.85308188519074
 20
33.20552803031222
 30
0.0
 11
16.02949425205041
 21
33.20552803031222
 31
0.0
  0
LINE
  5
793
  8
BORDER
 10
14.52952174547774
 20
33.20552803031222
 30
0.0
 11
16.02949425205041
 21
33.20552803031222
 31
0.0
  0
LINE
  5
794
  8
BORDER
 10
14.176587038049
 20
34.30844899102726
 30
0.0
 11
15.68897631861421
 21
34.30844899102726
 31
0.0
  0
LINE
  5
795
  8
BORDER
 10
14.176587038049
 20
40.39657269417506
 30
0.0
 11
15.68897631861421
 21
40.39657269417506
 31
0.0
  0
LINE
  5
796
  8
BORDER
 10
15.68897631861421
 20
37.9039713217531
 30
0.0
 11
14.176587038049
 21
37.9039713217531
 31
0.0
  0
LINE
  5
797
  8
BORDER
 10
15.68897631861421
 20
36.80105036103782
 30
0.0
 11
14.176587038049
 21
36.80105036103782
 31
0.0
  0
LINE
  5
798
  8
BORDER
 10
14.176587038049
 20
37.9039713217531
 30
0.0
 11
14.176587038049
 21
40.39657269417506
 31
0.0
  0
LINE
  5
799
  8
BORDER
 10
12.85308188519074
 20
41.4994936548901
 30
0.0
 11
16.02949424963883
 21
41.4994936548901
 31
0.0
  0
LINE
  5
79A
  8
BORDER
 10
14.52952174306623
 20
41.4994936548901
 30
0.0
 11
16.02949424963883
 21
41.4994936548901
 31
0.0
  0
LINE
  5
79B
  8
BORDER
 10
19.85761355347578
 20
41.4994936548901
 30
0.0
 11
19.85761355347578
 21
33.20552803031222
 31
0.0
  0
LINE
  5
79C
  8
BORDER
 10
28.58457746233045
 20
41.4994936548901
 30
0.0
 11
28.58457746233045
 21
33.20552803031222
 31
0.0
  0
LINE
  5
79D
  8
BORDER
 10
30.08454996890311
 20
41.4994936548901
 30
0.0
 11
30.08454996890311
 21
37.61721187317276
 31
0.0
  0
LINE
  5
79E
  8
BORDER
 10
30.08454996890311
 20
37.61721187317276
 30
0.0
 11
31.89488769460067
 21
41.4994936548901
 31
0.0
  0
LINE
  5
79F
  8
BORDER
 10
31.61121240277072
 20
37.67444860820071
 30
0.0
 11
33.39486020117334
 21
41.4994936548901
 31
0.0
  0
LINE
  5
7A0
  8
BORDER
 10
33.78997807847101
 20
33.20552803031222
 30
0.0
 11
35.40216168114029
 21
41.4994936548901
 31
0.0
  0
LINE
  5
7A1
  8
BORDER
 10
22.85655496876134
 20
34.30844899102726
 30
0.0
 11
23.61921916468512
 21
34.30844899102726
 31
0.0
  0
LINE
  5
7A2
  8
BORDER
 10
22.45976459396037
 20
33.20552803031222
 30
0.0
 11
23.95973710053296
 21
33.20552803031222
 31
0.0
  0
LINE
  5
7A3
  8
BORDER
 10
22.45046137890009
 20
33.20552803031222
 30
0.0
 11
23.95973710053296
 21
33.20552803031222
 31
0.0
  0
LINE
  5
7A4
  8
BORDER
 10
22.85655496876134
 20
40.39657269417506
 30
0.0
 11
23.61921916468512
 21
40.39657269417506
 31
0.0
  0
LINE
  5
7A5
  8
BORDER
 10
25.62687374334823
 20
37.9039713217531
 30
0.0
 11
23.23788706672323
 21
37.9039713217531
 31
0.0
  0
LINE
  5
7A6
  8
BORDER
 10
24.36894424932654
 20
36.80105036103782
 30
0.0
 11
23.23788706672323
 21
36.80105036103782
 31
0.0
  0
LINE
  5
7A7
  8
BORDER
 10
23.23788706672323
 20
36.80105036103782
 30
0.0
 11
23.23788706672323
 21
37.9039713217531
 31
0.0
  0
LINE
  5
7A8
  8
BORDER
 10
22.10682988411992
 20
36.80105036103782
 30
0.0
 11
22.10682988411992
 21
39.15027200916983
 31
0.0
  0
LINE
  5
7A9
  8
BORDER
 10
22.10682988411992
 20
35.55474967603248
 30
0.0
 11
22.10682988411992
 21
36.80105036103782
 31
0.0
  0
LINE
  5
7AA
  8
BORDER
 10
20.7833247336733
 20
35.55474967603248
 30
0.0
 11
20.7833247336733
 21
39.15027200916983
 31
0.0
  0
LINE
  5
7AB
  8
BORDER
 10
24.36894424932654
 20
39.15027200916983
 30
0.0
 11
25.62687374334823
 21
39.15027200916983
 31
0.0
  0
LINE
  5
7AC
  8
BORDER
 10
24.36894424932654
 20
35.55474967603248
 30
0.0
 11
24.36894424932654
 21
36.80105036103782
 31
0.0
  0
LINE
  5
7AD
  8
BORDER
 10
25.62687374334823
 20
35.55474967603248
 30
0.0
 11
25.62687374334823
 21
37.9039713217531
 31
0.0
  0
LINE
  5
7AE
  8
BORDER
 10
30.08454996890311
 20
34.40051045241301
 30
0.0
 11
30.80300336337159
 21
35.94123872670672
 31
0.0
  0
LINE
  5
7AF
  8
BORDER
 10
33.39486020117334
 20
33.20552803031222
 30
0.0
 11
31.61121240277072
 21
37.67444860820071
 31
0.0
  0
LINE
  5
7B0
  8
BORDER
 10
31.89488769460067
 20
33.20552803031222
 30
0.0
 11
30.80300336337159
 21
35.94123872670672
 31
0.0
  0
LINE
  5
7B1
  8
BORDER
 10
28.58457746233045
 20
33.20552803031222
 30
0.0
 11
30.08454996890311
 21
33.20552803031222
 31
0.0
  0
LINE
  5
7B2
  8
BORDER
 10
30.08454996890311
 20
33.20552803031222
 30
0.0
 11
30.08454996890311
 21
34.40051045241301
 31
0.0
  0
LINE
  5
7B3
  8
BORDER
 10
31.89488769460067
 20
33.20552803031222
 30
0.0
 11
33.39486020117334
 21
33.20552803031222
 31
0.0
  0
LINE
  5
7B4
  8
BORDER
 10
22.45976459396037
 20
41.4994936548901
 30
0.0
 11
23.95973710053296
 21
41.4994936548901
 31
0.0
  0
LINE
  5
7B5
  8
BORDER
 10
22.45046137890009
 20
41.4994936548901
 30
0.0
 11
23.95973710053296
 21
41.4994936548901
 31
0.0
  0
LINE
  5
7B6
  8
BORDER
 10
28.58457746233045
 20
41.4994936548901
 30
0.0
 11
30.08454996890311
 21
41.4994936548901
 31
0.0
  0
LINE
  5
7B7
  8
BORDER
 10
31.89488769460067
 20
41.4994936548901
 30
0.0
 11
33.39486020117334
 21
41.4994936548901
 31
0.0
  0
LINE
  5
7B8
  8
BORDER
 10
50.33529394182234
 20
41.4994936548901
 30
0.0
 11
53.01759771828161
 21
41.4994936548901
 31
0.0
  0
LINE
  5
7B9
  8
BORDER
 10
50.33529394182234
 20
33.20552803031222
 30
0.0
 11
51.6587990946806
 21
33.20552803031222
 31
0.0
  0
LINE
  5
7BA
  8
BORDER
 10
37.12483644871546
 20
41.4994936548901
 30
0.0
 11
39.34719783858754
 21
33.20552803031222
 31
0.0
  0
LINE
  5
7BB
  8
BORDER
 10
39.835486395814
 20
33.20552803031222
 30
0.0
 11
39.835486395814
 21
41.4994936548901
 31
0.0
  0
LINE
  5
7BC
  8
BORDER
 10
41.07075787181488
 20
41.4994936548901
 30
0.0
 11
41.07075787181488
 21
33.20552803031222
 31
0.0
  0
LINE
  5
7BD
  8
BORDER
 10
45.3059743609612
 20
41.4994936548901
 30
0.0
 11
45.3059743609612
 21
40.39657269417506
 31
0.0
  0
LINE
  5
7BE
  8
BORDER
 10
46.36477848324773
 20
33.20552803031222
 30
0.0
 11
46.36477848324773
 21
41.4994936548901
 31
0.0
  0
LINE
  5
7BF
  8
BORDER
 10
49.54119085010746
 20
40.39657269417506
 30
0.0
 11
49.54119085010746
 21
41.4994936548901
 31
0.0
  0
LINE
  5
7C0
  8
BORDER
 10
50.33529394182234
 20
33.20552803031222
 30
0.0
 11
50.33529394182234
 21
41.4994936548901
 31
0.0
  0
LINE
  5
7C1
  8
BORDER
 10
41.95309464038707
 20
33.20552803031222
 30
0.0
 11
44.28246370941755
 21
33.20552803031222
 31
0.0
  0
LINE
  5
7C2
  8
BORDER
 10
41.95309464038707
 20
34.30844899102726
 30
0.0
 11
43.87328272644383
 21
34.30844899102726
 31
0.0
  0
LINE
  5
7C3
  8
BORDER
 10
45.5299468555571
 20
35.16368433439232
 30
0.0
 11
43.38247224720621
 21
39.76895849414934
 31
0.0
  0
LINE
  5
7C4
  8
BORDER
 10
44.27311706874261
 20
34.93606319105297
 30
0.0
 11
42.12564245798008
 21
39.54133735080999
 31
0.0
  0
LINE
  5
7C5
  8
BORDER
 10
38.02369268572928
 20
33.20552803031222
 30
0.0
 11
36.09787646686294
 21
39.29840028474977
 31
0.0
  0
LINE
  5
7C6
  8
BORDER
 10
39.34719783858754
 20
33.20552803031222
 30
0.0
 11
38.02369268572928
 21
33.20552803031222
 31
0.0
  0
LINE
  5
7C7
  8
BORDER
 10
36.96639044533067
 20
33.20552803031222
 30
0.0
 11
36.67086366491656
 21
34.30844899102726
 31
0.0
  0
LINE
  5
7C8
  8
BORDER
 10
39.835486395814
 20
33.20552803031222
 30
0.0
 11
41.07075787181488
 21
33.20552803031222
 31
0.0
  0
LINE
  5
7C9
  8
BORDER
 10
41.95309464038707
 20
34.30844899102726
 30
0.0
 11
41.95309464038707
 21
33.20552803031222
 31
0.0
  0
LINE
  5
7CA
  8
BORDER
 10
47.68828363610594
 20
34.30844899102726
 30
0.0
 11
47.68828363610594
 21
36.80105036103782
 31
0.0
  0
LINE
  5
7CB
  8
BORDER
 10
46.36477848324773
 20
33.20552803031222
 30
0.0
 11
49.54119085010746
 21
33.20552803031222
 31
0.0
  0
LINE
  5
7CC
  8
BORDER
 10
49.54119085010746
 20
33.20552803031222
 30
0.0
 11
49.54119085010746
 21
34.30844899102726
 31
0.0
  0
LINE
  5
7CD
  8
BORDER
 10
47.68828363610594
 20
34.30844899102726
 30
0.0
 11
49.54119085010746
 21
34.30844899102726
 31
0.0
  0
LINE
  5
7CE
  8
BORDER
 10
45.3059743609612
 20
40.39657269417506
 30
0.0
 11
43.78230658950498
 21
40.39657269417506
 31
0.0
  0
LINE
  5
7CF
  8
BORDER
 10
47.68828363610594
 20
40.39657269417506
 30
0.0
 11
49.54119085010746
 21
40.39657269417506
 31
0.0
  0
LINE
  5
7D0
  8
BORDER
 10
49.54119085010746
 20
37.9039713217531
 30
0.0
 11
47.68828363610594
 21
37.9039713217531
 31
0.0
  0
LINE
  5
7D1
  8
BORDER
 10
49.54119085010746
 20
36.80105036103782
 30
0.0
 11
47.68828363610594
 21
36.80105036103782
 31
0.0
  0
LINE
  5
7D2
  8
BORDER
 10
49.54119085010746
 20
36.80105036103782
 30
0.0
 11
49.54119085010746
 21
37.9039713217531
 31
0.0
  0
LINE
  5
7D3
  8
BORDER
 10
47.68828363610594
 20
37.9039713217531
 30
0.0
 11
47.68828363610594
 21
40.39657269417506
 31
0.0
  0
LINE
  5
7D4
  8
BORDER
 10
45.3059743609612
 20
41.4994936548901
 30
0.0
 11
43.37312560411969
 21
41.4994936548901
 31
0.0
  0
LINE
  5
7D5
  8
BORDER
 10
39.835486395814
 20
41.4994936548901
 30
0.0
 11
41.07075787181488
 21
41.4994936548901
 31
0.0
  0
LINE
  5
7D6
  8
BORDER
 10
46.36477848324773
 20
41.4994936548901
 30
0.0
 11
49.54119085010746
 21
41.4994936548901
 31
0.0
  0
LINE
  5
7D7
  8
BORDER
 10
54.39404307725413
 20
33.72688428994261
 30
0.0
 11
54.39404307725413
 21
36.24958988188605
 31
0.0
  0
LINE
  5
7D8
  8
BORDER
 10
51.6587990946806
 20
33.20552803031222
 30
0.0
 11
51.6587990946806
 21
36.80105036103782
 31
0.0
  0
LINE
  5
7D9
  8
BORDER
 10
53.07053792198435
 20
36.00694726932283
 30
0.0
 11
53.07053792198435
 21
33.6433771585591
 31
0.0
  0
LINE
  5
7DA
  8
BORDER
 10
53.12572006377912
 20
33.20552803031222
 30
0.0
 11
54.53129751574496
 21
33.20552803031222
 31
0.0
  0
LINE
  5
7DB
  8
BORDER
 10
51.6587990946806
 20
40.39657269417506
 30
0.0
 11
52.54113586325273
 21
40.39657269417506
 31
0.0
  0
LINE
  5
7DC
  8
BORDER
 10
52.54113586325273
 20
37.9039713217531
 30
0.0
 11
51.6587990946806
 21
37.9039713217531
 31
0.0
  0
LINE
  5
7DD
  8
BORDER
 10
52.27643483026949
 20
36.80105036103782
 30
0.0
 11
51.6587990946806
 21
36.80105036103782
 31
0.0
  0
LINE
  5
7DE
  8
BORDER
 10
51.6587990946806
 20
37.9039713217531
 30
0.0
 11
51.6587990946806
 21
40.39657269417506
 31
0.0
  0
LINE
  5
7DF
  8
BORDER
 10
53.07053792439599
 20
38.43337338289631
 30
0.0
 11
53.07053792439599
 21
39.86717063303184
 31
0.0
  0
LINE
  5
7E0
  8
BORDER
 10
54.39404307725413
 20
40.12304829591763
 30
0.0
 11
54.39404307725413
 21
38.45543180331627
 31
0.0
  0
ARC
  5
7E1
  8
BORDER
 10
15.20787661180048
 20
39.15027200916983
 30
0.0
 40
2.488754284028322
 50
313.7508402721994
 51
70.72320736219913
  0
ARC
  5
7E2
  8
BORDER
 10
15.20787661180048
 20
35.55474967603248
 30
0.0
 40
2.488754284464199
 50
289.2767926377994
 51
46.24915974699899
  0
ARC
  5
7E3
  8
BORDER
 10
15.02794888990076
 20
35.55474967603248
 30
0.0
 40
1.410752515133703
 50
297.9411040015016
 51
62.05889599850228
  0
ARC
  5
7E4
  8
BORDER
 10
15.02794888990076
 20
39.15027200916983
 30
0.0
 40
1.410752516198939
 50
297.9411039556003
 51
62.05889599850129
  0
ARC
  5
7E5
  8
BORDER
 10
23.2720790167385
 20
39.15027200916983
 30
0.0
 40
2.488754283271438
 50
109.2767926378003
 51
180.0
  0
ARC
  5
7E6
  8
BORDER
 10
23.13811946028297
 20
39.15027200916983
 30
0.0
 40
2.488754284875332
 50
0.0000000351007187
 51
70.72320730980007
  0
ARC
  5
7E7
  8
BORDER
 10
23.2720790167385
 20
35.55474967603248
 30
0.0
 40
2.488754283271464
 50
180.0
 51
250.7232073621998
  0
ARC
  5
7E8
  8
BORDER
 10
23.5175823998863
 20
35.55474967603248
 30
0.0
 40
1.410752516015081
 50
180.0
 51
242.0588959119999
  0
ARC
  5
7E9
  8
BORDER
 10
22.95819173356016
 20
35.55474967603248
 30
0.0
 40
1.410752516015081
 50
297.9411040880001
 51
0.0
  0
ARC
  5
7EA
  8
BORDER
 10
23.13811946028297
 20
35.55474967603248
 30
0.0
 40
2.488754284875332
 50
289.2767926901998
 51
0.0
  0
ARC
  5
7EB
  8
BORDER
 10
23.5175823998863
 20
39.15027200916983
 30
0.0
 40
1.410752516015081
 50
117.9411040879978
 51
180.0
  0
ARC
  5
7EC
  8
BORDER
 10
22.95819173356016
 20
39.15027200916983
 30
0.0
 40
1.410752516015072
 50
0.0
 51
62.05889591199977
  0
ARC
  5
7ED
  8
BORDER
 10
43.37312560411969
 20
40.12304829591763
 30
0.0
 40
1.376445359579224
 50
90.0
 51
204.9999999818971
  0
ARC
  5
7EE
  8
BORDER
 10
43.78230658950498
 20
39.95540430988911
 30
0.0
 40
0.4411683843964659
 50
90.0
 51
204.9999999920169
  0
ARC
  5
7EF
  8
BORDER
 10
44.28246370941755
 20
34.58197338928468
 30
0.0
 40
1.376445358486402
 50
270.0
 51
25.0000000242964
  0
ARC
  5
7F0
  8
BORDER
 10
43.87328272644383
 20
34.74961737531346
 30
0.0
 40
0.441168384396507
 50
270.0
 51
24.99999999199397
  0
ARC
  5
7F1
  8
BORDER
 10
53.01759771828161
 20
40.12304829591763
 30
0.0
 40
1.376445358972546
 50
0.0
 51
90.0
  0
ARC
  5
7F2
  8
BORDER
 10
55.45284719954079
 20
33.72688428994261
 30
0.0
 40
1.058804122236713
 50
180.0
 51
209.4985180470912
  0
ARC
  5
7F3
  8
BORDER
 10
54.83521145912862
 20
33.6433771585591
 30
0.0
 40
1.764673537913354
 50
180.0
 51
194.3662353364976
  0
ARC
  5
7F4
  8
BORDER
 10
52.54113586325273
 20
39.86717063303184
 30
0.0
 40
0.5294020611433103
 50
0.0
 51
90.0
  0
ARC
  5
7F5
  8
BORDER
 10
52.54113586325273
 20
38.43337338289631
 30
0.0
 40
0.5294020611433103
 50
270.0
 51
0.0
  0
ARC
  5
7F6
  8
BORDER
 10
53.29112211653903
 20
38.45543180331627
 30
0.0
 40
1.102920960715196
 50
270.0
 51
0.0
  0
ARC
  5
7F7
  8
BORDER
 10
53.29112211653903
 20
36.24958988188605
 30
0.0
 40
1.102920960715196
 50
0.0
 51
90.0
  0
ARC
  5
7F8
  8
BORDER
 10
52.27643483026949
 20
36.00694726932283
 30
0.0
 40
0.7941030917149439
 50
0.0
 51
90.0
  0
ENDSEC
  0
EOF
